Song name
# A B C D E F G H I J K L M N O P Q R S T U V W X Y Z

Misc Computer Games - Try The Tasmanian Tiger - Bush Rescue Theme tab

Ty the Tasmanian Tiger: "Bush Rescue HQ Theme" (TABS)

Tabbed by: Lolzcaleb
Email: lolzcaleb@gmail.com

I learned this by ear, tell me what you think! :)

Tuning: Standard EADGBe

					(Break for a sec here..)
							 VV
e|-------------------------------|---------------------------------------|
B|-------------------------------|---------------------------------------|
G|------3/5-3-0------------------|--------3/5-3-0-3/5-3-0-3-5-6-5-3-0-3-3|
D|----3---------3-0-3-5--5/6-3-5-|------3--------------------------------|
A|3-6----------------------------|--3-6----------------------------------|
E|-------------------------------|---------------------------------------|

I have no idea how to play the next solo of the song, it's kind of quiet.. But the 
last part of solo 2,
then you play solo 1, and 2 again. (I'll try to learn the next part soon..)

e|---------------------------------------------------------------------------|
B|---------------------------------------------------------------------------|
G|---------------------------------------------------------------------------|
D|---------------------------------------------------------------------------|
A|---------------------------------------------------------------------------|
E|---3/6-8-8-8-8-8-0--3/6-8-8-8-8-8-0----------------------------------------|

Okay mates! Have fun jammin! 
Tap to rate this tab
# A B C D E F G H I J K L M N O P Q R S T U V W X Y Z