Song name
# A B C D E F G H I J K L M N O P Q R S T U V W X Y Z

Misc Computer Games - Uncharted 3 - Boarding Party tab

-----------------------------------------------------------------------------
			     Boarding Party - Greg Edmonson
-----------------------------------------------------------------------------
Tabbed by: pendulumman24
Email:

Tuning: Standard

Motif 1
e|------------------------|
B|------------------------|
G|------------------------| (Let It Ring...)
D|----5-6--------5-3------|
A|---3-3--------3-3-------|
E|------------------------|

Motif 2
e|---8-8-8-8-----13--13--13--13---|
B|--8-8-8-8----13--13--13--13-----|
G|--------------------------------| x2 (Let It Ring...)
D|--------------------------------|
A|--------------------------------|
E|--------------------------------|

Motif 3
e|---XXXXXXXX-|
B|---XXXXXXXX-|
G|---XXXXXXXX-| x28 (Rapidly Played, With Waa Peddle)
D|---XXXXXXXX-|
A|---XXXXXXXX-|
E|---XXXXXXXX-|

Motif 4
e|--------------------------------------------------|
B|--------------------------------------------------|
G|--------------------------------------------------| (Let It Ring...)
D|--------------------------------------------------|
A|------------------------------------8h7--7----7---|
E|---3h555-3h55------3h555-3h50----------10---10----|

Motif 5
e|--------------------------------------------------|
B|--------------------------------------------------|
G|--------------------------------------------------| (Let It Ring...)
D|-----------------------------------8h7--7----7----|
A|--------------------------------------10---10-----|
E|---3h555-3h55------3h555-3h50---------------------|

Motif 6
e|--------------------------------------------------------------|
B|--------------------------------------------------------------|
G|--------------------------------------------------------------| x2
D|-----------------3h----------------------6h53h5---------------|
A|---55553h56---555--63h63---55553h56---555------6--------------|
E|--------------------------------------------------------------|

Motif 7
e|--------------------------------------------------|
B|--------------------------------------------------|
G|--------------------------------------------------|
D|---------------------------6------------X---------|
A|---5---6---5---4---5---6--------------------------|
E|--------------------------------------------------|

All Motif's Are Played In The Order Displayed.

************************************

| /   slide up
| \   slide down
| h   hammer-on
| p   pull-off
| ~   vibrato
| +   harmonic
| x   Mute note
| b   Bend
| pb  Pre-bend
| br  Bend release
| pbr Pre-bend release
| brb Bend release bend

************************************
Tap to rate this tab
# A B C D E F G H I J K L M N O P Q R S T U V W X Y Z