Song name
# A B C D E F G H I J K L M N O P Q R S T U V W X Y Z

Misc Computer Games - World Of Warcraft - Arthas My Son tab

-------------------------------------------------------------------------------
		World of Warcraft - Arthas, my son
-------------------------------------------------------------------------------
Tabbed by: Anders Olsson
Email: anderzolzzon@hotmail.com

Tuning: Standard



e|---------------------------------------------------------------------------|
B|---1----------1----3-------1-------0---------------------------------------|
G|----------2----------------2------------2----0-----------------------------|
D|-------2------2--------2-------2-------------0-------------0---------------|
A|---0---------------0--------------------2--------2------2-----2------------|
E|------------------------------------3----------------3---------------------|





e|---------------------------------------------------------------------------|
B|---1----------1---3------1-------0-----------------------------------------|
G|----------2--------------2--------------------------------0----------------|
D|-------2------2-------2------2----------2-------------2--------------------|
A|---0--------------0------------------2-----2-------2-----------------------|
E|---------------------------------0--------------0--------------------------|



e|---1--------------1-----3--------1------------0----------------------------|
B|----------------------------------------------1-------3-----1--------------|
G|---------------------------------2------------0----------------------------|
D|------------3--------------------------3------2----------------------------|
A|--------3---------3----------3----------------3----------------------------|
E|---1--------------------1--------------------------------------------------|



e|-------------------------0--------5--------------------3-------------------|
B|---------------------------------------------------------------------------|
G|---------------------------------------------------------------------------|
D|--------------------0-----------------------3---------------------5--------|
A|----3-----2----3---------2--------------3--------3-------------5-----5-----|
E|----------------------------------1---------------------3------------------|




e|-----5---------------------------------------------------------------------|
B|---------------------------------------------------------------------------|
G|--------------------------5------------------------------------------------|
D|---------------7----------7------------------------------------------------|
A|------------7-----7-------7------------------------------------------------|
E|-----5--------------------5------------------------------------------------|

Tap to rate this tab
# A B C D E F G H I J K L M N O P Q R S T U V W X Y Z