Song name
# A B C D E F G H I J K L M N O P Q R S T U V W X Y Z

Misc Computer Games - Uniracers - Race 4 tab

-----------------------------------------------------------------------------
                             Race 4 - Uniracers
-----------------------------------------------------------------------------
One of the songs from the Nintendo video game about racing unicycles. Great
music and super catchy. Sad this game didn't catch on better.

Tabbed by: jarredpickles87
Email:	jarredpickles87@gmail.com

Tuning: Standard (EADGBe)

e|------------------------|
B|------------------------|
G|--------------7--8--9---|
D|--------------7--8--9---|	x4
A|--------------5--6--7---|
E|------5-(5)-------------|

e|---------------------------------------------|
B|---------------------------------------------|
G|---5-------5-------5------5--4--5--4--5-7----|
D|---5-------5-------5------5--4--5--4--5-7----|
A|---3-------3-------3------3--2--3--2--3-5----|
E|---------------------------------------------|

e|------------------------|
B|------------------------|
G|--------------7--8--9---|
D|--------------7--8--9---|	x4
A|--------------5--6--7---|
E|------5-(5)-------------|

e|---------------------------------------------|
B|---------------------------------------------|
G|---5-------5-------5------5--4--5--4--5-7----|
D|---5-------5-------5------5--4--5--4--5-7----|
A|---3-------3-------3------3--2--3--2--3-5----|
E|---------------------------------------------|

e|------------------------|
B|------------------------|
G|--------------7--8--9---|
D|--------------7--8--9---|	x4
A|--------------5--6--7---|
E|------5-(5)-------------|

e|---------------------------------------|
B|---------------------------------------|
G|-----7-----7-----9-----9-----9--8------|
D|-----7-----7-----9-----9-----9--8------|
A|-----5-----5-----7-----7-----7--6------|
E|---------------------------------------|

e|---------------------------------------|
B|---------------------------------------|
G|-----7-----7-----9-----9-----9---------|
D|-----7-----7-----9-----9-----9---------|
A|-----5-----5-----7-----7-----7---0-----|
E|---------------------------------------|

e|---------------------------------------------------|
B|---------------------------------------------------|
G|-----7--7--7------------------7--7--7-----5--------|
D|-----7--7--7-----7--7--7------7--7--7-----5----5---|
A|-----5--5--5-----7--7--7------5--5--5-----3----5---|
E|-----------------5--5--5-----------------------3---|

e|---------------------------------------------------|
B|---------------------------------------------------|
G|-----7--7--7------------------4--4--4-----9----9---|
D|-----7--7--7-----7--7--7------4--4--4-----9----9---|
A|-----5--5--5-----7--7--7------2--2--2-----7----7---|
E|-----------------5--5--5---------------------------|


e|-----------------------------------|
B|-----------------------------------|
G|-----------------------------------|
D|----7--7p5----------5--------5-----|	x2
A|-------------7---5-----5--5--------|
E|-----------------------------------|

e|-----------------------------------|
B|-----------------------------------|
G|-----------------------------------|
D|----5--5p3----------3--------3-----|	x2
A|-------------5---3-----3--3--------|
E|-----------------------------------|

e|-----------------------------------|
B|-----------------------------------|
G|-----------------------------------|
D|----7--7p5----------5--------5-----|	x2
A|-------------7---5-----5--5--------|
E|-----------------------------------|

e|-----------------------------------|
B|-----------------------------------|
G|-----------------------------------|
D|----5--5p3----------3--------3-----|	x2
A|-------------5---3-----3--3--------|
E|-----------------------------------|

There's a slide of some sort here, though not
sure if it's a pick slide or regular slide.
Do what sounds better I guess.

e|-----------------------------------|
B|-----------------------------------|
G|----------------3-----5-----5------|
D|----3-----5-----3-----5-----5------|
A|----3-----5-----1-----3-----3------|
E|----1-----3------------------------|

e|-----------------------------------|
B|-----------------------------------|
G|----------------3-----7-----7------|
D|----3-----5-----3-----7-----7------|
A|----3-----5-----1-----5-----5------|
E|----1-----3------------------------|


Song then repeats. Fairly easy and if you're into the old Nintendo music,
this is where it's at! It sounds pretty correct to me but if anyone
notices something wrong, feel free to let me know and I'll make the proper additions.


| /  slide up
| \  slide down
| h  hammer-on
| p  pull-off
| ~  vibrato
| +  harmonic
| x  Mute note
=============================================================================
Tap to rate this tab
# A B C D E F G H I J K L M N O P Q R S T U V W X Y Z