Song name
# A B C D E F G H I J K L M N O P Q R S T U V W X Y Z

Misc Computer Games - Joueur Du Grenier Theme tab

Title: Générique Joueur Du Grenier
Artist: Yannick Cremer
Tabber: gwendal.mollo@orange.fr
Tempo = 100
 Guitare

Legend
L - tied note
x - dead note
h - hammer on/pull off
b - bend
s - slide
~ - vibrato
g - ghost note
> - accentuated note
t - trill
M - palm mute
. - staccato
P - popping (bass)
S - slapping (bass)
+ - tapping
W - wide vibrato
< - fade in
w - whammy bar
= - tremolo picking
v - brush up
^ - brush down
V - pick stroke up
n - pick stroke down

GTR 1 :
E |----------------------------------------------------------------------------|
B |--------------------------------------12.------------------------10.--------|
G |--------------11.---------14.------------------------12.--------------------|
D |--12.-----------------------------------------------------------------------|
A |----------------------------------------------------------------------------|
E |----------------------------------------------------------------------------|


----------------------------------------------------------------------------|
----------------------------------------------------------------------------|
--------------11.---------14.---------12-------------11.--------------------|
--12.------------------------------------------------------------12---------|
----------------------------------------------------------------------------|
----------------------------------------------------------------------------|


----------------------------------------------------------------------------|
--------------------------------------12.------------------------10.--------|
--------------11.---------14.------------------------12.--------------------|
--12.-----------------------------------------------------------------------|
----------------------------------------------------------------------------|
----------------------------------------------------------------------------|


----------------------------------------------------------------------------|
----------------------------------------------------------------------------|
--------------11.---------14.---------12-------------11.--------------------|
--12.------------------------------------------------------------12---------|
----------------------------------------------------------------------------|
----------------------------------------------------------------------------|


-------||------|------|||------|------||-------|-------||
-------||------|------|||------|------||-------|-------||
-------||o-----|-----o|||o-----|-----o||-------|-------||
--14---||o-----|-----o|||o-----|-----o||-------|-------||
-------||------|------|||------|------||-------|-------||
-------||------|------|||------|------||-------|-------||

Gtr 2 :
E |-------|--14---|----------------|--14---|-------||------|------|||------|
B |-------|--15---|----------------|--15---|-------||------|------|||------|
G |-------|--14---|----------------|--14---|-------||o-----|-----o|||o-----|
D |-------|-------|----------------|-------|-------||o-----|-----o|||o-----|
A |-------|-------|----------------|-------|-------||------|------|||------|
E |-------|-------|----------------|-------|-------||------|------|||------|

Gtr sat :
E |-------|-------|-------|-------|-------||
B |-------|-------|-------|-------|-------||
G |-------|-------|-------|-------|-------||
D |-------|-------|-------|-------|-------||
A |-------|-------|-------|-------|-------||
E |-------|-------|-------|-------|-------||


-------------------x-----------x-------------------|
-------------------x-----------x-------------------|
o7-----7-----7-----x--x--4-----x--4--4-----4-------|
o7-----7-----7-----x--x--4-----x--4--4-----4-------|
-5-----5-----5--------x--2--------2--2-----2-------|
---------------------------------------------------|


--------------------x-----------x------------------|||
--------------------x-----------x------------------|||
--7-----7-----7-----x--x--4-----x--4--4-----4-----o|||
--7-----7-----7-----x--x--4-----x--4--4-----4-----o|||
--5-----5-----5--------x--2--------2--2-----2------|||
---------------------------------------------------|||


-------------------x-----------x-------------------|
-------------------x-----------x-------------------|
o9-----9-----9-----x--x--6-----x--6--6-----6-------|
o9-----9-----9-----x--x--6-----x--6--6-----6-------|
-7-----7-----7--------x--4--------4--4-----4-------|
---------------------------------------------------|


--------------------x-----------x------------------||-------|-------||
--------------------x-----------x------------------||-------|-------||
--9-----9-----9-----x--x--6-----x--6--6-----6-----o||--11---|-------||
--9-----9-----9-----x--x--6-----x--6--6-----6-----o||--11---|-------||
--7-----7-----7--------x--4--------4--4-----4------||--9----|-------||
---------------------------------------------------||-------|-------||


gtr sat 2 :
E |-------|-------|-------|-------|-------||
B |-------|-------|-------|-------|-------||
G |-------|-------|-------|-------|-------||
D |-------|-------|-------|-------|-------||
A |-------|-------|-------|-------|-------||
E |-------|-------|-------|-------|-------||


--------------------------------------------------------------------------------|
--------------------------------------------------------------------------------|
o---------------------------------11----------------------14--------------------|
o10s------12--------------------------------------------------------------------|
--------------------------------------------------------------------------------|
--------------------------------------------------------------------------------|


--------------------------------------------------------------------------------|
--------------12----------------------12----------------------------------10----|
--14----------------------------------------------12----------------------------|
--------------------------------------------------------------------------------|
--------------------------------------------------------------------------------|
--------------------------------------------------------------------------------|


--------------------------------------------|
------------------10----------10------------|
--------------------------------------------|
--------------------------------------------|
--------------------------------------------|
--------------------------------------------|


---------------------------------------------------|||
---------------------------------------------------|||
--------11----14----14-12----12-11----------------o|||
--12----------------------------------12----12----o|||
---------------------------------------------------|||
---------------------------------------------------|||


--------------------------------------------------------------------------------|
--------------------------------------------------------------------------------|
o---------------------------------13----------------------16--------------------|
o12s------14--------------------------------------------------------------------|
--------------------------------------------------------------------------------|
--------------------------------------------------------------------------------|


--------------------------------------------------------------------------------|
--------------14----------------------14----------------------------------12----|
--16----------------------------------------------14----------------------------|
--------------------------------------------------------------------------------|
--------------------------------------------------------------------------------|
--------------------------------------------------------------------------------|


--------------------------------------------|
------------------12----------12------------|
--------------------------------------------|
--------------------------------------------|
--------------------------------------------|
--------------------------------------------|


---------------------------------------------------||
---------------------------------------------------||
--------13----16----16-14----14-13----------------o||
--14----------------------------------14----14----o||
---------------------------------------------------||
---------------------------------------------------||


-----16L---------16L--------|--16---||
----------------------------|-------||
----------------------------|-------||
--16------------------------|-------||
----------------------------|-------||
----------------------------|-------||
Tap to rate this tab
# A B C D E F G H I J K L M N O P Q R S T U V W X Y Z