Song name
# A B C D E F G H I J K L M N O P Q R S T U V W X Y Z

Misc Computer Games - Skyrim - Main Theme tab

THIS TAB IS 100% ACCURATE

Standard Tuning (EADGBe)

---------------------2h3p0-|
---------------------------|
---------------------------|
-444-------444-------------|    Play this intro 8 times
-222--555--222--222--------|
------333-------000--------|

-------------------------------------------|
-------------------------------------------|
-----------------11-11-11-11-11-11--999999-|
-444444--999999---9--9--9--9--9--9--777777-|
-222222--777777----------------------------|
-------------------------------------------|

-----------------------------------12-12-12-12-12-12-|
-----------------------------------10-10-10-10-10-10-|
-----------------11-11-11-11-11-11-------------------|
-444444--999999---9--9--9--9--9--9-------------------|
-222222--777777--------------------------------------|
-----------------------------------------------------|

-------------------0-----------------------------------|
-3-2-2--3-2-3--3-2---3-2-0---------------------2-3-----|
-----------------------------4-2-4--4-2-4--4-2-----2-4-|
-------------------------------------------------------|
-------------------------------------------------------|
-------------------------------------------------------|

----------0-2--2-5-0--------|
-0-2-3--3-------------3-2-0-|
----------------------------|
----------------------------|
----------------------------|
----------------------------|

---------------------------|
-------------------2-3-----|
-4-2-4--4-2-4--4-2-----2-4-|
---------------------------|
---------------------------|
---------------------------|

---------------------------|
-444-------444-------------|    Play this 8 times
-222--555--222--222--------|
------333-------000--------|

-------------------------------------------|
-------------------------------------------|
-----------------11-11-11-11-11-11--999999-|
-444444--999999---9--9--9--9--9--9--777777-|
-222222--777777----------------------------|
-------------------------------------------|

-----------------------------------12-12-12-12-12-12-|
-----------------------------------10-10-10-10-10-10-|
-----------------11-11-11-11-11-11-------------------|
-444444--999999---9--9--9--9--9--9-------------------|
-222222--777777--------------------------------------|
-----------------------------------------------------|

----------0-2--2-5-0--------|
-0-2-3--3-------------3-2-0-|
----------------------------|
----------------------------|
----------------------------|
----------------------------|

----------0-2--2-5-7--5-9-7-|
-0-2-3--3-------------------|
----------------------------|
----------------------------|
----------------------------|
----------------------------|

-7-9-10--9-7---------0---2-0-|
-------------10-8-7----3-----|
-----------------------------|
-----------------------------|
-----------------------------|
-----------------------------|

---------------------------|
-------------------2-3-----|
-4-2-4--4-2-4--4-2-----2-4-|
---------------------------|
---------------------------|
---------------------------|
Tap to rate this tab
# A B C D E F G H I J K L M N O P Q R S T U V W X Y Z