Song name
# A B C D E F G H I J K L M N O P Q R S T U V W X Y Z

Misc Computer Games - Pokemon - Littleroot Town tab

e|--------------------------------10-------9-10-13-10------------------10-|
B|-----------10----10----10-11-13----10-10------------10------------10----|
G|-----10-12----12----12---------------------------------12-10-9-10-------|
D|--10--------------------------------------------------------------------|
A|------------------------------------------------------------------------|
E|------------------------------------------------------------------------|



------------------------10-----------------------------------------------|
---------13-11-11-10-------10-10-----------------------13-11-10----10----|
----9-10-------------10----------12-10-9----9-10-12-------------12----12-|
-12--------------------------------------12---------10-------------------|
-------------------------------------------------------------------------|
-------------------------------------------------------------------------|


---------10----------9-10-12-13------------------10----------------------|
10-11-13----10----10------------10------------10-------------13-11-11-10-|
---------------12------------------12-10-9-10-----------9-10-------------|
-----------------------------------------------------12------------------|
-------------------------------------------------------------------------|
-------------------------------------------------------------------------|


---10---------------------------------9-----------------------------------|
------10-10---------------10-11-11-13---11-10------------------10---------|
10----------12-10-9-10-12---------------------12-10-10-9----10----12---10-|
---------------------------------------------------------12----------12---|
--------------------------------------------------------------------------|
--------------------------------------------------------------------------|


------------------------9-12-15-13-12-13-10-12-17-15-10-13-12-12-13-15--|
------------10-11-13-10-------------------------------------------------|
--9-9-10-12-------------------------------------------------------------|
------------------------------------------------------------------------|
------------------------------------------------------------------------|
------------------------------------------------------------------------|
Tap to rate this tab
# A B C D E F G H I J K L M N O P Q R S T U V W X Y Z