Song name
# A B C D E F G H I J K L M N O P Q R S T U V W X Y Z

Misc Computer Games - Metal Gear Solid 2 Theme tab

e|-----------------------------------------------------------------------------------|
B|-----------------------------------------------------------------------------------|
G|-----------------------------------------------------------------------------------|
D|-----------------------------------------9-7-------------7-9----7-9-11-9-7---------|
A|-------9--7--5----7-9-5-9--7----5-7-9--------9-5--7----9---------------------------|
E|-----------------------------------------------------------------------------------|


e|-----------------------------------------------------------------------------------|
B|-----------------------------------------------------------------------------------|
G|--------------------------9----9-7------7-9-----9-7-----7-9----12-9-7----7---------|
D|-------7-9-11-12-11-9-7-9-----------10-------10------10---------------10-----------|
A|-----------------------------------------------------------------------------------|
E|-----------------------------------------------------------------------------------|


e|-----------------------------------------------------------------------------------|
B|----------10-12----10-12-14-12-10--------------------------------------------------|
G|-------11----------------------------9-11-13-s14-13-11-9-11------------------------|
D|-----------------------------------------------------------------------------------|
A|-----------------------------------------------------------------------------------|
E|-----------------------------------------------------------------------------------|

First tab, nothing fancy. Timing should be no problem. One of my favourite theme songs 
from any game/film I've played/seen.
Tap to rate this tab
# A B C D E F G H I J K L M N O P Q R S T U V W X Y Z