Song name
# A B C D E F G H I J K L M N O P Q R S T U V W X Y Z

Misc Computer Games - Gun - Hunting With Ned tab

Hunting With Ned and Prelude to the Steamboat
Gun
Christopher Lennertz
Tabbed with help of Harry Murrell

0:00
  Em       D            Em       Am
E-----0----3p2-0---------------------------------------------------|
B-----0----3------3p0--------------3-1--0h1------------------------|
G----------2---------------------2------2-----------------------2--|
D-0h2-------------------0h2------2------2----2------------------2--|
A-0h2-------------------0h2------------------2------------------0--|
E-0---------------------0--------------------0--------------3/2----|

  Em       D            Em       Am
E-----0----3p2-0------------0--------------------------------------|
B-----0----3------3p0-------0------3-1--0h1------------------------|
G----------2---------------------2------2-----------------------2--|
D-0h2-------------------0h2------2------2----2------------------2--|
A-0h2-------------------0h2------------------2------------------0--|
E-0---------------------0--------------------0--------------3/2----|

0:40
  Em                           Bm
E-----0--0--0--0--0--0---0--0--2--2--2--2--2--2--2--2----|
B--------------------------------------------------------|
G--------------------------------------------------------|
D-------2--2--2--2--2--2--2---2--2--2--2--2--2--2--2-----|
A-0h2----------------------------------------------------|
E--------------------------------------------------------|

  Em                           D
E-----0--0--0--0--0--0---2--2--2--2--2--2--2--2--3--3----|
B--------------------------------------------------------|
G--------------------------------------------------------|
D-------2--2--2--2--2--2--2---0--0--0--0--0--0--0--0-----|
A-0h2----------------------------------------------------|
E--------------------------------------------------------|

0:58
  Em                           Bm
E-----0--0--0--0--0--0---0--0--2--2--2--2--2--2--2--2----|
B--------------------------------------------------------|
G--------------------------------------------------------|
D-------2--2--2--2--2--2--2---2--2--2--2--2--2--2--2-----|
A-0h2----------------------------------------------------|
E--------------------------------------------------------|

  Em                           D
E-----0--0--0--0--0--0---2--2--2--2--2--2--2--2--3--3----|
B--------------------------------------------------------|
G--------------------------------------------------------|
D-------2--2--2--2--2--2--2---0--0--0--0--0--0--0--0-----|
A-0h2----------------------------------------------------|
E--------------------------------------------------------|

1:16
  Am                           Em
E-----0--0--0--0--0--0---0--0--0--0--0--0--0--0--0--0---|
B-------------------------------------------------------|
G-------------------------------------------------------|
D-------0--0--0--0--0--0--0---2--2--2--2--2--2--2--2----|
A-0h2---------------------------------------------------|
E-------------------------------------------------------|

  Em                           D
E-----0--0--0--0--0--0---2--2--2--2--2--2--2--2--3--3----|
B--------------------------------------------------------|
G--------------------------------------------------------|
D-------2--2--2--2--2--2--2---0--0--0--0--0--0--0--0---2-|
A-0h2--------------------------------------------------2-|
E------------------------------------------------------0-|

1:45
  F              E             F            E
E----1-1------------0-0-----------1-1----------0-0---|
B----------------------------------------------------|
G---2-2--------------------------2-2-----------------|
D-3--------------2-2-2---------3------------2-2-2----|
A-3--------------2-------------3------------2--------|
E-1--------------0-------------1------------0--------|

1:55
  G            G       C B
E----------------------------------------------|
B----------------------------------------------|
G----------------------------------------------|
D-5-5-5-5-5----5-5-5-5-8-7---------------------|
A-5-5-5-5-5----5-5-5-5-8-7---------------------|
E-3-3-3-3-3----3-3-3-3-6-5---------------------|

  G            G       C B
E----------------------------------------------|
B----------------------------------------------|
G----------------------------------------------|
D-5-5-5-5-5----5-5-5-5-8-7---------------------|
A-5-5-5-5-5----5-5-5-5-8-7---------------------|
E-3-3-3-3-3----3-3-3-3-6-5---------------------|

2:02
  Am
E-----------------------------------------------|
B-1-1-1-1-1-1-1-1-1-1-1-1-1-1-1-1-1-1-1-1-1-1-1-|
G-2-2-2-2-2-2-2-2-2-2-2-2-2-2-2-2-2-2-2-2-2-2-2-|
D-2-2-2-2-2-2-2-2-2-2-2-2-2-2-2-2-2-2-2-2-2-2-2-|
A-----------------------------------------------|
E-----------------------------------------------|

2:10
  Em           Am        Em        Am        Em        
E----0-------------0-0------0-0--------0-0------|
B-----------------------------------------------|
G--------------2--2-2--------------2--2-2-------|
D-2-2----------2---------2-2-2-----2---------2--|
A-2----2p0h2---0---------2---------0---------2--|
E-0----------------------0-------------------0--|
Tap to rate this tab
# A B C D E F G H I J K L M N O P Q R S T U V W X Y Z