Song name
# A B C D E F G H I J K L M N O P Q R S T U V W X Y Z

Misc Computer Games - Saya No Uta - Silent Sorrow tab

-------------------------------------------------------------------------------
              Silent Sorrow - Saya no Uta OST (Zizz Studio)
-------------------------------------------------------------------------------

Tabbed by: XCrusherX@gmail.com

Tuning: Drop D - you could also adjust the tab to a standard D tuning, probably 
better for the beginning.

One of my favorite songs. I was a bit afraid to listen so much to it to make a 
tab, but well...here it is ;).


Verse 1:
--------------------


Rhythm guitar:
e|--------------------------------------|        e|----------------------------------|
b|--------------------------------------|        b|----------------------------------|
g|--------------------------------------| x2 OR  g|----------5/4---4/2---2/0---------| x2
D|------0---10/9----9/7----7/5---5/3----|        D|-----0-2--------------------5/3---|
A|----0---7--------------------------0--|        A|---0----------5-----3-----2-----0-|
D|--0------------12-----10-----9--------|        D|-0--------------------------------|
See which works better for you. This is the part where a standard D tuning could come in handy. 

e|-------------------------------------------------------------------|
b|----------6/5---5/3---3/1---1p0-----------8/6---6/5---5/3----3/1---|
g|-------------------------------------------------------------------|
D|-----3/5------5-----3-----2-----0-----5/7-----7-----5------3-----2-|
A|---3--------------------------------5------------------------------|
D|-3--------------------------------5--------------------------------|

3 times



Additional tones:
e|-------17--------17---------------------17--------17-------------|
b|-17-15------17-----------17-15----17-15------17------15----17-15-|
g|-----------------------------------------------------------------|
D|-----------------------------------------------------------------|
A|-----------------------------------------------------------------|
D|-----------------------------------------------------------------|

repeat until Chorus



Lead guitar:

e|----------------------12-10-------------------12-10---10-8/7----8/10--15-|
b|-------------13/12-------------------------10----------------------------|
g|-9----7-9-10-------10-------12-10-----9-10-------------------------------|
D|-------------------------------------------------------------------------|
A|-------------------------------------------------------------------------|
D|-------------------------------------------------------------------------|

e|-17------------------15-17------------17---------------------------------|
b|-----13--15-------18--------13--15-------13--15---13/12----b13br12-------|
g|-------------14----------------------------------------------------------|
D|-------------------------------------------------------------------------|
A|-------------------------------------------------------------------------|
D|-------------------------------------------------------------------------|





Chorus:
--------------------

Rhythm Guitar:

e|-8------10------7------10-------12-------12--------12------13-------15-------17/15-------|
b|----------------------------------------------8/10----8/10----10/12----12/13-------12----|
g|---9/10----9/10---9/10----10/12----10/12----------------------------------------------12-| x2
D|-----------------------------------------------------------------------------------------|
A|-----------------------------------------------------------------------------------------|
D|-----------------------------------------------------------------------------------------|

e|--17/15----15/13----13/12----12/10---10/8--8-|
b|---------------------------------------------|
g|--------16-------14-------12-------10-----9--| x2
D|---------------------------------------------|
A|---------------------------------------------|
D|---------------------------------------------|


Lead Guitar: 

e|-------------10------12-10--13--12--15--13--|
b|-10--13--12------13-------------------------|
g|--------------------------------------------| x2 (second time without the last note)
D|--------------------------------------------|
A|--------------------------------------------|
D|--------------------------------------------|

e|-13-15-17-----------------13--15--17-----------|
b|-----------13/12-12---13--------------13/12-12-|
g|-----------------------------------------------|
D|-----------------------------------------------|
A|-----------------------------------------------|
D|-----------------------------------------------|





Verse 2:
--------------------

Rhythm Guitar:
Same as Verse 1 (only 2 times)

Additional notes as in Verse 1


Lead guitar 1:

e|-20-24----------------------------------------------------------20-17--h20p17h20p17h20p17h20p17--|
b|------------------------------------------------------15-13-12-----------------------------------|
g|-------------------------------------------------------------------------------------------------|
D|-------------------------------------------------------------------------------------------------|
A|-------------------------------------------------------------------------------------------------|
D|-------------------------------------------------------------------------------------------------|

Lead guitar 2:

e|----------------------------------------------------------17--20--19--17------|
b|------------12-13-15-13-12-13-15-13-12-13-15-13-12----------------------------|
g|------------------------------------------------------------------------------|
D|------------------------------------------------------------------------------|
A|------------------------------------------------------------------------------|
D|------------------------------------------------------------------------------|


After that:

Both guitars: 

e|-20--19-------15---(22-22)-20--19--17--15--13--13/0----17--15h17p15-13h15p13--10---|
b|-----------15----------------------------------------------------------------------|
g|-----------------------------------------------------------------------------------|
D|-----------------------------------------------------------------------------------|
A|-----------------------------------------------------------------------------------|
D|-----------------------------------------------------------------------------------|
(13/0 includes a couple of notes, can't figure that out)

e|-----------------8h10p8-7-5-------|
b|-5h7h8p7p5...-----------------8-6-|
g|----------------------------------|
D|----------------------------------|
A|----------------------------------|
D|----------------------------------|
(... - couple of times)





Chorus again

Ending: Verse 1 without lead guitars (2 times)

e|----8--7----5--8--10--8--7-----5-|
b|-6-------8------------------8----|
g|---------------------------------|
D|---------------------------------|
A|---------------------------------|
D|---------------------------------|





************************************

| /   slide up
| \   slide down
| h   hammer-on
| p   pull-off
| ~   vibrato
| +   harmonic
| x   Mute note
| b   Bend
| pb  Pre-bend
| br  Bend release
| pbr Pre-bend release
| brb Bend release bend

************************************
Tap to rate this tab
# A B C D E F G H I J K L M N O P Q R S T U V W X Y Z