Song name
# A B C D E F G H I J K L M N O P Q R S T U V W X Y Z

Misc Computer Games - Grand Theft Auto - Pager tab

BY: C.Mitchell   

i was sittin playin ma guitar one night while my friend was playin GTA 3 i had nothin better
to do so i came up with this.         

Standard Tuning

E|------------------------------------------------|
B|-------------8----------------------------------|
G|-9--9--7--9-----9--7--9--5--5--5--4--4--4--7--9-|
D|------------------------------------------------|
A|------------------------------------------------|
E|------------------------------------------------|

D- Tunning Version

E|-------------------------------------------------|
B|-------------------------------------------------|
G|-------------------------------------------------|
D|-9--9--7--9--12--9--7--9--5--5--5--4--4--4--7--9-|
A|-9--9--7--9--12--9--7--9--5--5--5--4--4--4--7--9-|
D|-9--9--7--9--12--9--7--9--5--5--5--4--4--4--7--9-|
Tap to rate this tab
 
# A B C D E F G H I J K L M N O P Q R S T U V W X Y Z