Song name
# A B C D E F G H I J K L M N O P Q R S T U V W X Y Z

Misc Computer Games - Good Morning Earthbound - Hotel Theme tab

-----------------------------------------------------------------------------
Good Morning (Hotel Theme) - Earthbound
Composed by: Hiroshi Kanazu, Keiichi Suzuki, and Hirokazu Tanaka
-----------------------------------------------------------------------------
Tabbed by: RescueRanger
Email: ceflory@gmail.com

Many thanks to corovanromo of YouTube for posting this video, it helped me figure this tab out: 
http://www.youtube.com/watch?v=JstRmlDMNLI


Tuning: Standard

e|-------0-----3----------------0-----3---------|
B|-3-------3---1------1-----------3---0---------|
G|---0-----------0--------2p0-----------0-------|
D|-----4-----------2----------4-----------0h2---|
A|-5-----------3----------5-----------3---------|
E|-3----------------------3---------------------|

And repeat.

************************************

| h   hammer-on
| p   pull-off

************************************
Tap to rate this tab
 
# A B C D E F G H I J K L M N O P Q R S T U V W X Y Z