Song name
# A B C D E F G H I J K L M N O P Q R S T U V W X Y Z

Misc Computer Games - Spiral Mountain Theme tab

                       Banjo-Kazooie Spiral Mountain Theme

   It sounds pretty good to me, only took me about 2 hours to get learn this by 
listining to it. This is my first tab, so go easy on me :P.





  -------------------------------------------------------------------|
  -13--13--15--13----------------------12-13----12-10--8--8--10-8----|
  -----------------12-12----14-12-14------------------------------9--|
  -------------------------------------------------------------------|
  -------------------------------------------------------------------|
  -------------------------------------------------------------------|


  -------------------------------------------------------------------|
  -7--------------------13--13--15-13-----------17--15-17-15---13----|
  ---7-9------12-14-16-----------------12-12-------------------------|
  -------------------------------------------------------------------|
  -------------------------------------------------------------------|
  -------------------------------------------------------------------|


  -------------------------------------------------------------------|
  -13-14-15--15--17-15---10-12--10-12-10-8-8--10-12-13--13--15-13----|
  ----------------------------------------------------------------12-|
  -------------------------------------------------------------------|
  -------------------------------------------------------------------|
  -------------------------------------------------------------------|


  -------------------------------------------------------------------|
  -----13--13--15-13---------13--13--15-13---------13--13--15-16-15--|
  12-----------------13-13-----------------14-14---------------------|
  -------------------------------------------------------------------|
  -------------------------------------------------------------------|
  -------------------------------------------------------------------|


  -------------------------------------------------------------------|
  -13------13--13--15-13---------------------------------------------|
  ----13-----------------12-12----16--14-16-14-12-12-14-16-----------|
  -------------------------------------------------------------------|
  -------------------------------------------------------------------|
  -------------------------------------------------------------------|


  ---------------------------------------------------------------------|
  -13--13-13-10-13-10----13-13-13-12-13--8--8--8-8-10------------------|
  ----------------------------------------------------7---------10--12-|
  ---------------------------------------------------------------------|
  ---------------------------------------------------------------------|
  ---------------------------------------------------------------------|


  ---------------------------------------------------------------------|
  -------13----------------------------------------13------15-15-13-13-|
  -14-10----------------------12------10--12-14-12---------------------|
  ---------------10--12-14-10------------------------------------------|
  ---------------------------------------------------------------------|
  ---------------------------------------------------------------------|


  -------------------------------------------------------------------|
  --15-15-12-12------------------13----------------------------------|
  ------------------10--12-14-10----------------------12------10--12-|
  ---------------------------------------10--12-14-12----------------|
  -------------------------------------------------------------------|
  -------------------------------------------------------------------|


  --------------------------------------18-20-21---------------------|
  -----------------------12--14-15-12--------------------------------|
  14-10----12-14-16-12-----------------------------------------------|
  -------------------------------------------------------------------|
  -------------------------------------------------------------------|
  -------------------------------------------------------------------|
Tap to rate this tab
 
# A B C D E F G H I J K L M N O P Q R S T U V W X Y Z