Song name
# A B C D E F G H I J K L M N O P Q R S T U V W X Y Z

Misc Computer Games - I Wanna Be The Guy Theme tab

-------------------------------------------------------------------------------
I Wanna Be The Guy Game Over / Guilty Gear Isuka OST Might Is The Right But Tight
-------------------------------------------------------------------------------

Email:mrjkmat@yahoo.com

Tuning:E Standard


  Guitar 1
e|---------------------------------------------------------------------------|
B|---------------------------------------------------------------------------|
G|------------------7-----7-----7----7------5------5-----6-------------------|
D|--4---5---6---7-----4-----5----6-----7--------7----------------------------|
A|---------------------------------------------------------------------------|
E|---------------------------------------------------------------------------|

  Guitar 2
e|---------------------------------------------------------------------------|
B|---------------------------------------------------------------------------|
G|---------------------------------------------------------------------------|
D|---------------------------------------------------------------------------|
A|------------------5-----5-----5-----5-----3------3-----4-------------------|
E|--2---3---4---5-----2-----3-----4-----5-------5----------------------------|

~~~~~~~~~~~~~~~~~~~~~~~~~~~~~~~~~~~~~~~~~~~~~~~~~~~~~~~~~~~~~~~~~~~~~~~~~~~~~~

  Guitar 1
e|---------------------------------------------------------------------------|
B|---------------------------------------------------------------------------|
G|----7-----7-----7----7------5------5-----6-------5p2--2--5p2--2--5p2-------|
D|------4-----5----6-----7--------7------------------------------------------|
A|---------------------------------------------------------------------------|
E|---------------------------------------------------------------------------|

  Guitar 2
e|---------------------------------------------------------------------------|
B|---------------------------------------------------------------------------|
G|---------------------------------------------------------------------------|
D|---------------------------------------------------------------------------|
A|----5-----5-----5-----5-----3------3-----4-------3p0--0--3p0--0--3p0-------|
E|------2-----3-----4-----5-------5------------------------------------------|

~~~~~~~~~~~~~~~~~~~~~~~~~~~~~~~~~~~~~~~~~~~~~~~~~~~~~~~~~~~~~~~~~~~~~~~~~~~~~~

  Guitar 1
e|---------------------------------------------------------------------------|
B|--13------14------15-------------------------------------------------------|
G|--15b17---16b18---17b19~---------------------------------------------------|
D|---------------------------------------------------------------------------|
A|---------------------------------------------------------------------------|
E|---------------------------------------------------------------------------|

  Guitar 2
e|---------------------------------------------------------------------------|
B|---------------------------------------------------------------------------|
G|--5--------6--------7------------------------------------------------------|
D|--5--------6--------7------------------------------------------------------|
A|--3--------4--------5------------------------------------------------------|
E|---------------------------------------------------------------------------|


************************************

| p   pull-off
| ~   vibrato
| b   Bend

************************************
Tap to rate this tab
 
# A B C D E F G H I J K L M N O P Q R S T U V W X Y Z