Song name
# A B C D E F G H I J K L M N O P Q R S T U V W X Y Z

Misc Computer Games - Tetris - Tetris Theme A Gameboy tab

-------------------------------------------------------------------------------
                                                     TETRIS Theme - TETRIS
------------------------------------------------------------------------------- 
Hey Everyone, This is my first tab, so it might not be the best one you've 
looked at. This is 100% correct as far my my knowledge of the song is concerned, 
and is probably the easiest way to do it. I have provided two different means of 
playing the song, one lower octave and one higher octave. Play it til your 
friends break your equipment if it suits you, I do. Criticism is welcome, so are 
comments or commendations. Enjoy!

Tabbed by: Kikashie45
Email: Kikashie45@yahoo.com


************************************
| Standard Tuning
| /   slide up
| \   slide down
| h   hammer-on
| p   pull-off
************************************

e|----------------------------------------------------------------9--7-------|
B|-9------7h9p7---------------9--7------------7--9---------7--10-------10--9-|
G|---8--9-------9--8--6--6--9------9--8--8--9------9\6--6--------------------|
D|---------------------------------------------------------------------------|
A|---------------------------------------------------------------------------|
E|---------------------------------------------------------------------------|

e|---------------------------------------------------------------------------|
B|---9--7------------7--9----------------------------- *Play this X2* -------|
G|-9------9--8--8--9------9/6--6- *Short Pause* -----------------------------|
D|---------------------------------------------------------------------------|
A|---------------------------------------------------------------------------|
E|---------------------------------------------------------------------------|

e|---------------------------------------------------9--8--------------------|
B|-9---7----------------------------------9---7-----9------------------------|
G|---9---8--9--6--5/8--- *Short Pause* -----9---8--9-------------------------|
D|---------------------------------------------------------------------------|
A|---------------------------------------------------------------------------|
E|---------------------------------------------------------------------------|
           And here is the Higher Octave if you wish to play it so...

e|---------------------------------------------------------------------------|
B|-17-------15h17p15--------------------17--15--------------15--17-----------|
G|---16--17----------17--16--14--14--17-------17--16--16--17------17\14---14-|
D|---------------------------------------------------------------------------|
A|---------------------------------------------------------------------------|
E|---------------------------------------------------------------------------|

e|--------17--15-------------------------------------------------------------|
B|-15--18-------18--17----17--15---------------15--17----- *Play This X2* ---|
G|---------------------17-------17--16--16--17--------17\14--14--------------|
D|---------------------------------------------------------------------------|
A|---------------------------------------------------------------------------|
E|---------------------------------------------------------------------------|

e|------------------------------------------------------------17--16---------|
B|-17---15-------------------------------------17---15------17---------------|
G|---17---16--17--14--13---16- *Short Pause* ----17---16--17-----------------|
D|---------------------------------------------------------------------------|
A|---------------------------------------------------------------------------|
E|---------------------------------------------------------------------------|

Hope You guys enjoy this, I know I did... took forever to learn without tabs.
Tap to rate this tab
# A B C D E F G H I J K L M N O P Q R S T U V W X Y Z