Song name
# A B C D E F G H I J K L M N O P Q R S T U V W X Y Z

Misc Computer Games - Luigis Mansion tab

Luigi's Mansion tab
Tabbed by: ultimatelefty

This is the tab for the tune that's played in Proffesor E. Gadd's house
(The place that you start at everytime you play the game)
Please rate, comment, and enjoy!!

Listen to the tune for exact timing and how to play it.

e|-161616-16-16-16-16-|
B|-141414-14-14-14-14-|
G|--------------------|
D|--------------------|
A|--------------------|
E|--------------------|

e|-13-13-13-13-----13-12-------|-11-11-11-11-----11-9-------|
B|--------------14--------13---|--------------13-------11---|
G|-----------------------------|----------------------------|
D|-----------------------------|----------------------------|
A|-----------------------------|----------------------------|
E|-----------------------------|----------------------------|x2

e|---------------------------------------------|
B|---------------------------------------------|
G|---------------------------------------------|
D|--------------------------------1--3---------|
A|-1--0--1--3--4--1------4--3--4--------4------|
E|---------------------------------------------|

e|------------------------------------------------------------------------1-|
B|------------------------------------------------------------------------1-|
G|----------0--1----------------------------------------------------------1-|
D|-3--2--3--------3-------3--2--------3------2--3------2--3--2--3--2--3---3-|
A|---------------------3----------3---------------------------------------3-|
E|------------------------------------------------------------------------1-|

Tap to rate this tab
# A B C D E F G H I J K L M N O P Q R S T U V W X Y Z