Song name
# A B C D E F G H I J K L M N O P Q R S T U V W X Y Z

Misc Computer Games - Zombie Panic - Zombies Ate My Neighbours tab

Zombie Panic
Zombies Ate My Neighbours
Cillian Ebbs
24/2/12
e--------------------------------------------|
B------------9-10-11-10-9--------------------|
G-8-10-11-12--------------12-11-10-----------|
D--------------------------------------------| X4
A--------------------------------------------|
E--------------------------------------------|

e--------------------11----------------------|
B--9-11-12-11-9-11-12------8-9-10-11-10-9----|
G-8--------------------8-8-------------------|
D--------------------------------------------|
A--------------------------------------------|
E--------------------------------------------|


e--------------------11----------------------|
B--9-11-12-11-9-11-12-----12-11-9-7----------|< Alternate strum last 4 notes
G-8-------------------8-8--------------------|
D--------------------------------------------|
A--------------------------------------------|
E--------------------------------------------|

e---------------------------------------------|
B----9-7--9-9-9h11-9-7--9-7-----7--7---7--7---|
G-------8--------------8---8-8-8-8--8-8--8----|
D---------------------------------------------|
A---------------------------------------------|
E---------------------------------------------|

e--------------------------------9s11--------
                        
                    
Tap to rate this tab
# A B C D E F G H I J K L M N O P Q R S T U V W X Y Z