Song name
# A B C D E F G H I J K L M N O P Q R S T U V W X Y Z

Misc Computer Games - Morrowind Theme tab

-------------------------------------------------------------------------------
                             Morrowind Theme - Elder Scrolls: Morrowind
-------------------------------------------------------------------------------
Tabbed by:cruiser101
Email: hendersonlogan22@yahoo.com

Tuning: Standard


 I really love this song, as well as the rest of the fantastic music in the Elder
Scrolls games. Jeremy Soule is the man who wrote this fantastic music, and should be 
given all credit!.
I know this is completely right. I noticed that there were other tabs, some being in the
incorrect key compared to the actual song, and this version corrects that.
Enjoy :)

e|----------------------------------------------------------------------------|
B|--------------------------------------------------------------------1----3-1|
G|--------------------0---0-3---------------------------------0---0-3----3----|
D|-------0-1----1-3----------3--3h5p3--1-0---------0-1----1-3-----------------|
A|----3-------------------------------------3----3----------------------------|
E|----------------------------------------------------------------------------|

(triplet)|____________|
e|------------------------------------------------------------------------------|
B|--1-3--4-3-1------------------------------------------------------------------|
G|-------------3-1-0--------0---------------------------------------------------|
D|--------------------3---1---3---3h5p3--1-0------------------------------------|
A|-------------------------------------------3----------------------------------|
E|------------------------------------------------------------------------------|


************************************

| /   slide up
| \   slide down
| h   hammer-on
| p   pull-off
| ~   vibrato
| +   harmonic
| x   Mute note
| b   Bend
| pb  Pre-bend
| br  Bend release
| pbr Pre-bend release
| brb Bend release bend

************************************
Tap to rate this tab
# A B C D E F G H I J K L M N O P Q R S T U V W X Y Z