Song name
# A B C D E F G H I J K L M N O P Q R S T U V W X Y Z

Misc Computer Games - Legend Of Zelda - Gerudo Valley tab

This is about about as accurate as it gets. I made it so it ends on a chord rather than 
fades out (for when you play live or something like that). If you want to fade out, just 
take the repeat as many times as you want.
If you go by the original recording, the 2nd guitar would strum the same pattern 
throughout the whole song.

Opening riff

e------------5-4-5-7-----9---|
B---------6--------------9---|
G-----4-6----------------10--|
D---6------------------------|
A-4--------------------------|
E----------------------------|

Guitar 2 Background (Chords)
  F#m  D   E   C#
e|-2-|-2-|-0-|-1-|
B|-2-|-3-|-0-|-2-|
G|-2-|-2-|-1-|-1-|
D|---|---|---|---|
A|---|---|---|---|
E|---|---|---|---|

Guitar 1 Melody
|---2-4-5---2-4-5-|---2-4-5---2-4-5-|---0-2-4---0-2-4-|-2-4-2-1--|
|-2-------2-------|-3-------3-------|-0-------0-------|----------|
|-----------------|-----------------|-----------------|----------|
|-----------------|-----------------|-----------------|----------|
|-----------------|-----------------|-----------------|----------|
|-----------------|-----------------|-----------------|----------|

|---2-4-5---2-4-5-|---2-4-5---2-4-5-|---0-2-4---0-2-4-|-5-7-5-4--|
|-2-------2-------|-3-------3-------|-0-------0-------|----------|
|-----------------|-----------------|-----------------|----------|
|-----------------|-----------------|-----------------|----------|
|-----------------|-----------------|-----------------|----------|
|-----------------|-----------------|-----------------|----------|

|---5-4-2-|---0-0h2p0---|---4-2-0-|-------------|
|-2-------|-2---------3-|-0-------|-2-3-3h5p3-2-|
|---------|-------------|---------|-------------|
|---------|-------------|---------|-------------|
|---------|-------------|---------|-------------|
|---------|-------------|---------|-------------|

|---5-4-2-|---0-0h2p0---|-----2-0-----|
|-2-------|-2---------3-|---0-0-0-3-2-|
|---------|-------------|-2-------1-1-|
|---------|-------------|-4-----------|
|---------|-------------|-------------|
|---------|-------------|-------------|

|-5-4-5-4-----------|-4-2-4-0-------------|
|-----------5-------|---------3-2-3h5p3-2-|
|---------6---7-6-7-|---------------------|
|-------------------|---------------------|
|-------------------|---------------------|
|-------------------|---------------------|

|-----------------|-----------------|--------4-2-----|
|-----------------|-----------------|--3--0--3-2-0-2-|
|-------6-------6-|-------7-------7-|--2-----------1-|
|-4-6-7---4-6-7---|-4-6-7---4-6-7---|----------------|
|-----------------|-----------------|----------------|
|-----------------|-----------------|----------------|

|-5-4-5-(2)-4-5-7-5-4-5-4-5-|-4-2-4-(0)-2-4-5-4-2-4-2-1-|
|--------7------------------|--------5------------------|
|---------------------------|---------------------------|
|---------------------------|---------------------------|
|---------------------------|---------------------------|
|---------------------------|---------------------------|

|-5-4-5-(2)-4-5-7-5-4-5-4-5-|------------------9-10-12-9-10-9-|
|--------7------------------|-12-10-12-9-10-12----------------|
|---------------------------|---------------------------------|
|---------------------------|---------------------------------|
|---------------------------|---------------------------------|
|---------------------------|---------------------------------|

strum accents on beats 1, 3, & 4
(let chords ring)

|-----------------|-----------------|-----------------|----------|
|-----------------|-----------------|-----------------|-3h5p3-2--|
|---2-1-2---2-1-2-|---2-1-2---2-1-2-|---4-3-4---4-3-4-|----------|
|-4-------4-------|-0-------0-------|-2-------2-------|----------|
|-----------------|-----------------|-----------------|----------|
|-----------------|-----------------|-----------------|----------|

REPEAT x1 (back to 1st melody)

End: Slower
Guitar 2: single strum let chords ring                           (opt)
 F#m                D                 E                C#         F#m
|---2-4-5---2-4-5-|---2-4-5---2-4-5-|---0-2-4---0-2-4-|-2-4-2-1--|-2-|
|-2-------2-------|-3-------3-------|-0-------0-------|----------|-2-|
|-----------------|-----------------|-----------------|----------|-2-|
|-----------------|-----------------|-----------------|----------|-4-|
|-----------------|-----------------|-----------------|----------|-4-|
|-----------------|-----------------|-----------------|----------|-2-|
Tap to rate this tab
# A B C D E F G H I J K L M N O P Q R S T U V W X Y Z