Song name
# A B C D E F G H I J K L M N O P Q R S T U V W X Y Z

Misc Computer Games - Fast Draw Showdown Theme tab

theme song wii
1994 arcade game american laser games 
2009 digital leisure


fast draw showdown


TRANSCRIBED BY RUDY GUZMAN


guzman_84@hotmail.com




this is the intro song - press a + b

                                               
e:-3-3-3-3-3-3-3-3-3-3-3-3-3--3-3-3-3-3-3-3--3-3-3-3-3-3-3-3-3-3-3-3-3-3-3-3-3-|
B:-3-3-3-3-3-3-3-3-3-3-3-3-3--3-3-3-3-3-3-3--3-3-3-3-3-3-3-3-3-3-3-3-3-3-3-3-3-|
G:-0-0-0-0-0-0-0-0-0-0-0-0-0--0-0-0-0-0-0-0--0-0-0-0-0-0-0-0-0-0-0-0-0-0-0-0-0-|
D:-0-0-0-0-0-0-0-0-0-0-0-0-0--2-2-2-2-2-2-2--0-0-0-0-0-0-0-0-0-0-0-0-0-0-0-0-0-|
A:-2-2-2-2-2-2-2-2-2-2-2-2-2--3-3-3-3-3-3-3--2-2-2-2-2-2-2-2-2-2-2-2-2-2-2-2-2-|
E:-3-3-3-3-3-3-3-3-3-3-3-3-3-----------------3-3-3-3-3-3-3-3-3-3-3-3-3-3-3-3-3-|

e:-2-2-2-2-2-2-2-2-2-2-|
B:-1-1-1-1-1-1-1-1-1-1-|
G:-2-2-2-2-2-2-2-2-2-2-|
D:-0-0-0-0-0-0-0-0-0-0-|
A:---------------------|
E:---------------------|

e:-3-3-3-3-3-3-3-3-3-3--3-3-3-3-3-3-3--3-3-3-3-3-3-3-3-3-3-3-3-3-3-|
B:-3-3-3-3-3-3-3-3-3-3--3-3-3-3-3-3-3--3-3-3-3-3-3-3-3-3-3-3-3-3-3-|
G:-0-0-0-0-0-0-0-0-0-0--0-0-0-0-0-0-0--0-0-0-0-0-0-0-0-0-0-0-0-0-0-|
D:-0-0-0-0-0-0-0-0-0-0--2-2-2-2-2-2-2--0-0-0-0-0-0-0-0-0-0-0-0-0-0-|
A:-2-2-2-2-2-2-2-2-2-2--3-3-3-3-3-3-3--2-2-2-2-2-2-2-2-2-2-2-2-2-2-|
E:-3-3-3-3-3-3-3-3-3-3-----------------3-3-3-3-3-3-3-3-3-3-3-3-3-3-|

e:-2-2-2-2-2-2-2--3-3-3-3-3-3-3-3-3-|
B:-1-1-1-1-1-1-1--3-3-3-3-3-3-3-3-3-|
G:-2-2-2-2-2-2-2--0-0-0-0-0-0-0-0-0-|
D:-0-0-0-0-0-0-0--0-0-0-0-0-0-0-0-0-|
A:----------------2-2-2-2-2-2-2-2-2-|
E:----------------3-3-3-3-3-3-3-3-3-|


hillo son mex

29/04/12
Tap to rate this tab
# A B C D E F G H I J K L M N O P Q R S T U V W X Y Z