Song name
# A B C D E F G H I J K L M N O P Q R S T U V W X Y Z

Misc Computer Games - Final Fantasy Xiii - 2 Yeuls Theme tab

Yeul's Theme (Final Fantasy XIII-2)
Capo 3
by: Rich500

I love FF XIII-2 and this song...will try taping this song, hope this is good...1st tab 
for it!
Intro:

E|--3--1--3\5--0-----0--1--0-----------|
B|----------------3-----------3--1--0--|
G|-------------------------------------|
D|-------------------------------------|
A|-------------------------------------|
E|-------------------------------------|



E|-----------1--------------------------------------|
B|--------3--------------3-----------0--------0-----|
G|-----2-----------0--2-----------2--------2--------|
D|--0-----------0--------------0--------0--------2--|
A|--------------------------0--------------------2--|
E|--------------------------------------------------|
___________________________________________________________________

E|-----------------|
B|--------1-----1--|
G|--------0-----0--| x2 (Am*)
D|-----2--2--2--2--|
A|--0--------------|
E|-----------------|



E|--------1-----1--|
B|--------1-----1--|
G|--------2-----2--| x2 (F*)
D|-----3--3--3--3--|
A|--0--------------|
E|-----------------|

E|--------3-----3--|
B|--------3-----3--|
G|--------0-----0--| x2 (G*)
D|--------0-----0--|
A|-----2-----2-----|
E|--3--------------|



E|-----------------|
B|--------3-----3--|
G|--------3-----3--| x2 (B*)
D|--------3-----3--|
A|-----2-----2-----|
E|--2--------------|


E|-----------|
B|-----0---0-|
G|-----1---1-|  x2 (E*)
D|-----2---2-|
A|---2-2-2-2-|
E|-0---------|


Rift: Chorus

E|---------0---------------0---------------0---------------0---------------3---------------3---|
B|-------1---1-----------1---1-----------1---1-----------1---1-----------3---3-----------3-----|
G|-----0-------0-------0-------0-------2-------2-------2-------2-------2-------2-------2-------|
D|---2-----------2---2-----------2---3-----------3---3-----------3---2-----------2---2---------|
A|-0---------------0---------------0---------------0---------------0---------------0-----------|
E|---------------------------------------------------------------------------------------------|



E|-----------------1---------------0---------------0---------------0---------------0-----------|
B|-3-------------2---2-----------0---0-----------1---1-----------1---1-----------1---1---------|
G|---2---------2-------2-------1-------1-------0-------0-------0-------0-------2-------2-------|
D|-----2-----2-----------2---2-----------2---2-----------2---2-----------2---3-----------3-----|
A|-------0-1---------------2---------------0---------------0---------------0---------------0---|
E|---------------------------------------------------------------------------------------------|



E|-------0---------------0-------------------3---------------0---------|
B|-----1---1-----------1---1---------------3---3-----------1---1-------|
G|---2-------2-------2-------2-----------0-------0-------0-------0-----|
D|-3-----------3---3-----------3-------0-----------0---2-----------2---|
A|---------------0---------------0---2---------------3---------------3-|
E|---------------------------------3-----------------------------------|




Intro: Am* twice

Am*                           F*
Sooner than memories begin to fray
Am*                                 F*
Everything from the past just swept away
F*               Am*          B*            E*
Remembering when all who have gone are now lost
Am*                             F*
Many paths, many seasons I have seen
Am*                                    F*
Time has washed them away just like the sea
F*                  Am*          B*      E*
So many fates and dreams will become tragedies

Rift:Chorus
To see you safe To watch you grow Visions of love, my only hope Such loneliness is worth 
the price I'll protect you with my life
Tap to rate this tab
# A B C D E F G H I J K L M N O P Q R S T U V W X Y Z