Song name
# A B C D E F G H I J K L M N O P Q R S T U V W X Y Z

Misc Computer Games - Dynasty Warriors - Overflowing Desire tab

Song: Overflowing Desire
Artist: Dynasty Warriors Music
Tuning: Standard
Tabbed By: GuitarHawk99
Description:

This is the tab for the song Overflowinf desire from the game dynasty warriors 5 
Xtreme legends. enjoy 


Guitar 2 w/ Dist & rotary effect  
|-----------------------------------------------|
|-----5---7--------------5---7---2--------------|
|-----5---7--------------5---7---2--------------|
|-----5---7--------------5---7---2--------------|
|-0h2/3---5----------0h2/3---5---0--------------|
|-----------------------------------------------|
Guitar 2 continues riff with guitar 1

Guitar 1 w/ Dist 
|--------------------------------------|
|-6p5------/--8p7--------7--7-7-7*-----|
|-----5----/------7------7--7-7-7*-----|
|-------5--/--------7----7--7-7-7*-----|
|--------------------------------------|
|--------------------------------------|
* Cut off note

|--------------------------------------|
|-6p5------/--8p7------\--2--2-2-2*----|
|-----5----/------7----\--2--2-2-2*----|
|-------5--/--------7--\--2--2-2-2*----|
|--------------------------------------|
|--------------------------------------|
* Cut off note

Guitar 2 rotary off                  (played in time with bass)
|----------------------------|       |------------------|
|-4-4-4-4--------------------|       |------------------|
|-5-5-5-5--------------------|       |------------------|
|-4-4-4-4--------------------|       |------------------|
|----------------------------|       |------------------|
|----------------------------|       |-0-0--2-2-3-3-4---|
Guitar 1                        x2
|------------9---9--9--9-----|       |------------------|
|------------10--10-10-10----|       |------------------|
|------------9---9--9--9-----|       |------------------|
|----------------------------|       |------------------|
|----------------------------|       |------------------|
|----------------------------|       |-0-0--2-2-3-3-4---|
(both playing together)

Guitar 2 rotary off                  (played in time with bass)
|----------------------------|       |------------------|
|-4-4-4-4--------------------|       |------------------|
|-5-5-5-5--------------------|       |------------------|
|-4-4-4-4--------------------|       |------------------|
|----------------------------|       |-2----------------|
|----------------------------|       |---3b(4)----------|
Guitar 1                        x2
|------------9---9--9--9-----|       |------------------|
|------------10--10-10-10----|       |------------------|
|------------9---9--9--9-----|       |------------------|
|----------------------------|       |------------------|
|----------------------------|       |-2----------------|
|----------------------------|       |---3b(4)----------|

Then repeat till fade...
Tap to rate this tab
# A B C D E F G H I J K L M N O P Q R S T U V W X Y Z