Song name
# A B C D E F G H I J K L M N O P Q R S T U V W X Y Z

Misc Computer Games - The Elder Scrolls Iii - Morrowind Theme tab

Tabbed by: Philipp Reuters; philipp.reuters@gmail.com
I am still working on the last part of the Intro (last 4 to 5 tones.) I simply can not 
work them out ;) If you have any idea, how to play those, I would be very glad to hear 
from you.

E |-------------------------------------------------------------------------|
B |----------------------------11----------6h8p6--4--3--2--1----------------|
G |-5--7--8-----8--10-12----12----10-10-------------------------------5--7--|
D |-------------------------------------------------------------------------|
A |-------------------------------------------------------------------------|


E |-------------------------8-----10-8-----8--10-11-10-8--6--4--3--1-----3-|
B |----------------------11----11-------------------------------------4----|
G |-8-----8--10-12----12---------------------------------------------------|
D |------------------------------------------------------------------------|
A |------------------------------------------------------------------------|
E |------------------------------------------------------------------------|



E |-1-
B |---
G |---
D |---
A |---
E |---
Tap to rate this tab
# A B C D E F G H I J K L M N O P Q R S T U V W X Y Z