Song name
# A B C D E F G H I J K L M N O P Q R S T U V W X Y Z

Misc Computer Games - Team Fortress 2 - Engineers Guitar Song tab

-------------------------------------------------------------------------------
                             engineer's guitar song
-------------------------------------------------------------------------------
Tabbed by:Fall0ut007
Email:Fall0ut007fotw@gmail.com
play the song at a steady rate.  for the first part of the song play it twice, then for 
the rest play it twice also, and then repeat
Tuning:standard

e|---------------------------0-0-0-------0-0-0------------0-0-0--------------|
B|---------------------------2-2-2-------2-2-2------------2-2-2--------------|
G|---------------------------2-2-2-------2-2-2------------2-2-2--------------|
D|---------------------------2-2-2-------2-2-2------------2-2-2--------------|
A|------------------0--------0-0-0-------0-0-0------0-----0-0-0--------------|
E|--0----2----4----------------------0------------------------------0--------|

e|---------------------------0-0-0-------------------------------0-0-0-------|
B|---------------------------2-2-2-------------------------------2-2-2-------|
G|---------------------------2-2-2-------------------------------2-2-2-------|
D|---------------------------2-2-2--------------4---4---2---2----2-2-2-------|
A|------------------0--------0-0-0-----0---0---------------------0-0-0-------|
E|--0----2----4-----------------------------------------------------------0--|

e|----0-0-0-----------0-0-0--------------------------------------------------|
B|----2-2-2-----------2-2-2--------------------------------------------------|
G|----2-2-2-----------2-2-2--------------------------------------------------|
D|----2-2-2-----------2-2-2--------------------------------------------------|
A|----0-0-0-----0-----0-0-0--------------------------------------------------|
E|-----------------------------0---------------------------------------------|
Tap to rate this tab
# A B C D E F G H I J K L M N O P Q R S T U V W X Y Z