Song name
# A B C D E F G H I J K L M N O P Q R S T U V W X Y Z

Misc Computer Games - Battlefield 1942 Theme tab

-------------------------------------------------------------------------------
                                              Battlefield 1942 theme song!
-------------------------------------------------------------------------------
Tabbed by:Raze666
Email:Rasmus.bjork@yahoo.se

Tuning: You can choose what you like but i play it in standard tuning!
here we go!
this is the intro which you play with powerchords!
play this two times:
e|---------------------------------------------------------------------------|
B|---------------------------------------------------------------------------|
G|---------------------------------------------------------------------------|
D|--------9-9--7-7-7-6-6-----------------------------------------------------|
A|-9-9-9--7-7--5-5-5-4-4-----------------------------------------------------|
E|-7-7-7---------------------------------------------------------------------|
solo:
e|---------------------------------------------------------------------------|
B|-12-14-10---12-12-14-15-14-12-14-12-10-12-12-14-17-15 17-15-14-15-14-10-12-|
G|----------11---------------------------------------------------------------|
D|---------------------------------------------------------------------------|
A|---------------------------------------------------------------------------|
E|---------------------------------------------------------------------------|
simple right? 
Tap to rate this tab
 
# A B C D E F G H I J K L M N O P Q R S T U V W X Y Z