Guitaretab - guitar tabs
Song name
# A B C D E F G H I J K L M N O P Q R S T U V W X Y Z

Misc Computer Games - Final Fantasy 7 - Cosmo Canyon tab

These are the tabs to Cosmo Canyon; the rythem is up to you.

Cosmo Canyon

e------------------------------------------------------------------|
B------------------------------------------------------------------|
G--------------------------0-2-2-2-2-------------------------------|
D-0-2-2-2-2---0-0-2-2-2-2---------------0-0-2-2-2-2----0-0-2-2-2-2-|
A-----------2-------------------------2--------------2-------------|
E------------------------------------------------------------------|

e------------------------------------------------------------------| 
B--------------------0-0-0-------0-------0-------------------------| 
G-----------0--0-2-0-------2-0-2---2-0-2---0--------0--------------|
D-2-2-2-0-2----------------------------------2-2--0---2-0-2--------|
A------------------------------------------------------------------|
E------------------------------------------------------------------|
[ Tab from: http://www.guitaretab.com/m/misc-computer-games/31482.html ]
e------------------------------------------------------------------| 
B------------------------0-0-0-------0-------0---------------------| 
G---------------0--0-2-0-------2-0-2---2-0-2---0--------0----------|
D---0-2-2-2-0-2----------------------------------2-2--0---2-0-2----|
A-0----------------------------------------------------------------|
E------------------------------------------------------------------|

e-----0-0-0-2-0--------0-0-3-2-0-----------------------------------| 
B-0-3-----------3--0-3-----------3--------0-1-0-1-3-0h-------------| 
G-----------------------------------2-0-2--------------------------|
D------------------------------------------------------------------|
A------------------------------------------------------------------|
E------------------------------------------------------------------|

e-----0-0-0-2-0--------0-0-3-2-0--------------------0h--3--0--0h---| 
B-0-3-----------3--0-3-----------3--------0-1-0-1-3----------------| 
G-----------------------------------2-0-2--------------------------|
D------------------------------------------------------------------|
A------------------------------------------------------------------|
E------------------------------------------------------------------|

For any questions or comments e-mail me @ Titanium_Tibbetts@hotmail.com
Related for Final Fantasy 7 - Cosmo Canyon tab
Advertisement will be closed in 10 seconds