Song name
# A B C D E F G H I J K L M N O P Q R S T U V W X Y Z

Misc Computer Games - Dynasty Warriors 5 - Smileless tab

Song: Smileless
Artist: Dynasty Warriors Music
Tuning: Standard
Tabbed By: GuitarHawk99
Description: 

This is the main riffs from smileless, depending on what guitar you have its
 ussually best to use the bridge pick up. Enjoy!

w/ Dist
|----------------------------------------|
|-------5----------7---------5-----------|
|--------------------------------------8-|
|---6----------8---------7---------------| x2
|-4----------4---------4-----------9-----|
|--------------------------------7-------|

|----------------------------------------|
|----------------------------------------|
|----------------------------------------|
|-------2-2-4-5-4-2---2--4-----2-2-------| x4
|-4-2-4-------------4------2-4-----4-2-4-|
|----------------------------------------|

|---------------------------------------------------------------|
|---------------------------------------------------------------|
|---------------------------------------------------------------|
|-------2--4--2-4-2-4-2--------2--------2--4--2-4-2-4-2-----2---| x2
|-2-3-4-----------------4--2-4----2-3-4-----------------4-2---4-|
|---------------------------------------------------------------|

|----------------------------------------------------------------|
|----------------------------------------------------------------|
|----------------------------------------------------------------|
|----------------------------------------------------------------| x2
|-------0--2--0-2-0-2-0-------0--4-------0--2--0-2-0-2-0-----0---|
|-0-1-2-----------------2-0-2------0-1-2-----------------2-0---2-|
Tap to rate this tab
# A B C D E F G H I J K L M N O P Q R S T U V W X Y Z