Song name
# A B C D E F G H I J K L M N O P Q R S T U V W X Y Z

Misc Computer Games - Dynasty Warriors 5 - Run Run Run tab

Song: Run, Run, Run
Artist: Dynasty Warriors Music
Tuning: Standard
Tabbed By: GuitarHawk99
Description:

This is the intro and main chord riff for run run run. enjoy!


intro
|-13-10------10-7-----------------------------|
|-------12-9------9-6-9-6---6-----------------|
|-------------------------7---7-4---4---------|
|---------------------------------6---6-3-----|
|-----------------------------------------5-2-|
|---------------------------------------------|
Main riff
|----------------------------------------------------------------|
|----------------------------------------------------------------|
|----------------------------------------------------------------|
|-7--7-7-7-7-7-7--3--3-3-3-3-3-3--5--5-5-5-5-5-5--6--6-6-6-6-6-6-| x2
|-7--7-7-7-7-7-7--3--3-3-3-3-3-3--5--5-5-5-5-5-5--6--6-6-6-6-6-6-|
|-5--5-5-5-5-5-5--1--1-1-1-1-1-1--3--3-3-3-3-3-3--4--4-4-4-4-4-4-|
Pm  \-----------/   \-----------/   \-----------/   \-----------/
Continue main riff pattern over lead riff

|-10b(12)-r10-8~-10b(12)r-8-7~-8b(10)-r7h8p7-5~-5-8-15b(17)r-13-12-|
|------------------------------------------------------------------|
|------------------------------------------------------------------|
|------------------------------------------------------------------| x2
|------------------------------------------------------------------|
|------------------------------------------------------------------|

|--------------------------------|
|--------------------------------|
|-7--7-7-7-7-7-7--8--8-8-8-8-8-8-|
|-7--7-7-7-7-7-7--8--8-8-8-8-8-8-| x4
|-5--5-5-5-5-5-5--6--6-6-6-6-6-6-|
|--------------------------------|
Pm   \------------/  \----------/
Tap to rate this tab
# A B C D E F G H I J K L M N O P Q R S T U V W X Y Z