Song name
# A B C D E F G H I J K L M N O P Q R S T U V W X Y Z

Misc Computer Games - Silent Hill - Alessas Song tab

-----------------------------------------------------------------------------
                             Alessa's Song - Silent Hill
-----------------------------------------------------------------------------
Tabbed by: XxDragon_BassxX
E-mail: Dragon972009@live.com

Tuning: Standard
Guitar 1- Melody
e|------------8-10-8-----------------8--------------------------------------|
B|----8-10-11---------11-10-8~--10-11---11-10-8--11-10-8-6-10-8-------------|
G|--------------------------------------------------------------------------|
D|--------------------------------------------------------------------------|
A|--------------------------------------------------------------------------|
E|--------------------------------------------------------------------------|
Guitar two- Harmony (Let Ring; Repeat throughout song)
e|----------------------------------------------------------------------|
B|----------------------------------------------------------------------|
G|-----7-------5-------5-------5-------7-------7-------5-------5--------|
D|---5---5---5---5---5---5---5---5---5---5---5---5---5---5---5---5------|
A|-5-------6-------7-------6-------5-------6-------7-------6------------|
E|----------------------------------------------------------------------|
Tap to rate this tab
# A B C D E F G H I J K L M N O P Q R S T U V W X Y Z