Song name
# A B C D E F G H I J K L M N O P Q R S T U V W X Y Z

Misc Computer Games - Eliminator Boat Duel - Champ Music tab

|-------------------------------------------------------------.|
|-------------------------------------------------------------.|
|-------------------------------------------------------------.|
|----------2----5-4-4--7-9-7--------5/2-----------------------.|
|-2-2-5--0-5-3-2-2--5-7-5-9-7--3----.5/4-2--------------------.|
|-0-0-3-----3-------------------7-5--------3/2-0--------------.|

|-------------------------------------------------------------.|
|-------------------------------------------------------------.|
|-------------------------------------------------------------.|
|----------2----5-4-4--7-9-7--------5/2-----------------------.|
|-2-2-5--0-5-3-2-2--5-7-5-9-7--3----.5/4-2--------------------.|
|-0-0-3-----3-------------------7-5--------3/2-0--------------.|

By Bonzo Bg \../,       \m/,      \_._/,     \,,/,
Tap to rate this tab
 
# A B C D E F G H I J K L M N O P Q R S T U V W X Y Z