Song name
# A B C D E F G H I J K L M N O P Q R S T U V W X Y Z

Misc Computer Games - Legend Of Zelda - Oath To Order tab

||---0--------------|-3--------------|-0--------------|-2--------------|
||o--0--------------|-1--------------|-0--------------|-1--------------|
||---0--------------|-2--------------|-0--------------|-2--------------|
||------------------|----------------|----------------|----------------|
||o-----------------|----------------|----------------|----------------|
||---0--------------|-1--------------|-0--------------|-1--------------|
     W                W                W                W

                   H      H
|-0--------------|-3------2-------|-3--------------|-7--------------|
|-1--------------|-4--------------|-5--------------|-8--------------|
|-2--------------|-4--------------|-4--------------|-7--------------|
|----------------|----------------|-2--------------|-0--------------|
|----------------|-2--------------|----------------|----------------|
|-0--------------|----------------|----------------|----------------|
  W                W                W                W

                                                     H      H
|-5--------------|-0--------------|-3--------------|-3------2--------||
|-5--------------|-1--------------|-5--------------|-4--------------o||
|-6--------------|-0--------------|-4--------------|-4---------------||
|----------------|----------------|----------------|-----------------||
|-4--------------|-3--------------|-2--------------|-2--------------o||
|----------------|----------------|----------------|-----------------||
  W                W                W                W


|-0--------------|
|-0--------------|
|-0--------------|
|----------------|
|----------------|
|-0--------------|
  W
Tap to rate this tab
 
# A B C D E F G H I J K L M N O P Q R S T U V W X Y Z