Song name
# A B C D E F G H I J K L M N O P Q R S T U V W X Y Z

Misc Computer Games - Max Payne Theme tab

Max Payne Theme

The main theme for all the Max Payne games, easy to play and sounds awesome.
Any comments, questions or queries then mail me at ruled_by_secrecy_6@hotmail.com

3/4

     H.               E  E   Q    Q       Q.     Q.         Q.     E  Q     
E||---------------|--------------------|--8-------------|------------------|
B||---------------|---------------8----|---------8------|--11------8-------|
G||---------------|------8--10---------|----------------|-------------8----|
D||---------------|--10----------------|----------------|----------0-------|
A||---------------|--------------------|----------------|-------------6----|
E||--8------------|---8----------------|--8-------------|---8--------------|


  H.              Q    Q    Q       Q.     Q.        Q.     Q.      
---------------|-----------------|----------------|----------------|
--0------------|-----------------|----------------|--3------4------|
---------------|-----------------|--7------0------|----------------|
--9------------|--L----6----5----|----------------|----------------|
---------------|-----------------|----------------|----------------|
--7------------|--7--------------|--7-------------|--3-------------|


  Q.     Q.         E  E   Q    Q       Q.     Q.         Q.     E  Q     
----------------|--------------------|--8-------------|------------------|
--0-------------|---------------8----|---------8------|--11------8-------|
---------5------|------8--10---------|----------------|-------------8----|
----------------|--10----------------|----------------|----------0-------|
--3-------------|--------------------|----------------|-------------6----|
----------------|---8----------------|--8-------------|---8--------------|


  H.              Q    Q    Q       Q.     Q.        Q.     Q.      
---------------|-----------------|----------------|----------------|
--0------------|-----------------|----------------|--3------4------|
---------------|-----------------|--7------0------|----------------|
--9------------|--L----6----5----|----------------|----------------|
---------------|-----------------|----------------|----------------|
--7------------|--7--------------|--7-------------|--3-------------|


  Q.     Q.       
----------------||
--0-------------||
---------5------||
----------------||
--3-------------||
----------------||




Duration Legend
---------------
W - whole
H - half
Q - quarter
E - 8th
S - 16th
T - 32nd
X - 64th
. - note dotted
|-n-|  - n-tuplets


Tablature Legend
----------------
L - tied note
x - dead note
g - grace note
(n) - ghost note
> - accentuded note
NH - natural harmonic
AH - artificial harmonic
TH - tapped harmonic
SH - semi harmonic
PH - pitch harmonic
h - hammer on
p - pull off
b - bend
br - bendRelease
pb - preBend
pbr - preBendRelease
brb - bendReleaseBend
\n/ - tremolo bar dip
\n - tremolo bar dive
-/n - tremolo bar Release up
/n\ - tremolo bar inverted dip
/n - tremolo bar return
-\n - tremolo bar Release down
S - shift slide
s - legato slide
/ -  slide into from below or out of upwards
\ -  slide into from above or out of downwards
~ - vibrato
W - wide vibrato
tr - trill
TP - tremolo picking
T - tapping
S - slap
P - pop
< - fade in
^ - brush up
v - brush down
Tap to rate this tab
 
# A B C D E F G H I J K L M N O P Q R S T U V W X Y Z