Song name
# A B C D E F G H I J K L M N O P Q R S T U V W X Y Z

Misc Computer Games - Swords And Sandals 3 Theme tab

C minor

Rythm tabs:
-----------------------------------------|
-----------------------------------------|
-----------------------------------------|
-3-x-x-x-x-3-x-x-x-x-6-x-x-x-x-8-x-x-x-x-|
-3-x-x-x-x-3-x-x-x-x-6-x-x-x-x-8-x-x-x-x-|
-1-x-x-x-x-1-x-x-x-x-4-x-x-x-x-6-x-x-x-x-|

Solo:
-----------------------------------------|
-----------------------------------------|
----------------7-8-7--------------------|
-8-8-8-8----8-10-------------------------|
---------10------------------------------|
-----------------------------------------|

Last note in solo with tremble
Tap to rate this tab
 
# A B C D E F G H I J K L M N O P Q R S T U V W X Y Z