Song name
# A B C D E F G H I J K L M N O P Q R S T U V W X Y Z

Misc Computer Games - Banjo Kazooie - Spiral Mountian tab

Tabbed by: Tyson6511
E-mail:

Tuning:

e|8-8--10--8--3-3--5-3-5-7-8-7-5-3-3-5-3-0-1--0-----------------------------|
B|-------------------------------------------3------------------------------|
G|--------------------------------------------------------------------------|
D|--------------------------------------------------------------------------|
A|--------------------------------------------------------------------------|
E|--------------------------------------------------------------------------|

e|3-5-7-8-8-10-8-3-3-12-10-12-10-8-9-10-10-12-10-5-7-5-7-5-3-3-5-7----------|
B|--------------------------------------------------------------------------|
G|--------------------------------------------------------------------------|
D|--------------------------------------------------------------------------|
A|--------------------------------------------------------------------------|
E|--------------------------------------------------------------------------|

e|8-7-7-7-5-8-7-7-7-5-8-7-7-7-5-8-7-5---------------------------------------|
B|--------------------------------------------------------------------------|
G|--------------------------------------------------------------------------|
D|--------------------------------------------------------------------------|
A|--------------------------------------------------------------------------|
E|--------------------------------------------------------------------------|

e|1-3-5-3-8-----------1-3-5-3-8-7-7-5-5-7-7-3-3-----------------------------|
B|----------1-3-5-3-8-------------------------------------------------------|
G|--------------------------------------------------------------------------|
D|--------------------------------------------------------------------------|
A|--------------------------------------------------------------------------|
E|--------------------------------------------------------------------------|

e|1-3-5-3-8------------1-3-5-3-4-5-6-4-5-6-7-8-9-10-------------------------|
B|----------1-3-5-3-8-------------------------------------------------------|
G|--------------------------------------------------------------------------|
D|--------------------------------------------------------------------------|
A|--------------------------------------------------------------------------|
E|--------------------------------------------------------------------------|

Yes the end is a bit off, but thats how i learned it
Tap to rate this tab
 
# A B C D E F G H I J K L M N O P Q R S T U V W X Y Z