Song name
# A B C D E F G H I J K L M N O P Q R S T U V W X Y Z

Misc Computer Games - Super Mario Theme tab

This is just a cool way to play the Mario song with chords AND tabs

Intro

Cmaj7 Fmaj7  Fadd9 G

the main part:

Dm7 Dm7 Em7 Ebm7 Dm7 Dm7 Em7 Ebm7

repeat that several times untill this part

e|-------------------------------------8-8-8--------|
B|-8p7p6p4h5-----1---1-3----8p7p6p4h5---------------|
G|-----------1h2---2--------------------------------|
D|--------------------------------------------------|
A|--------------------------------------------------|
E|--------------------------------------------------|

For the

e|---8-8-8---|
B|-----------|
G|-----------|
D|-----------|
A|-----------|
E|-----------|

play

e|-----15\----|
B|-----15\----|
G|------------|
D|------------|
A|------------|
E|------------|

and then comes the

e|--------------------------------------------------|
B|-8p7p6p4h5-----1---1-3--4-3-2---------------------|
G|-----------1h2---2--------------------------------|
D|--------------------------------------------------|
A|--------------------------------------------------|
E|--------------------------------------------------|

for the

e|----------|
B|---4-3-2--|
G|----------|
D|----------|
A|----------|
E|----------|

Play this:

e|--1-3-0-|
B|--1-3-1-|
G|--1-3-2-|
D|------3-|
A|--------|
E|--------|

after that part comes:

e|------------0-------------------------------------0------------|
B|-1-1-1--1-3----1--------1-1-1--1-3-5---1-1-1--1-3----1---------|
G|------------------2-0-----------------------------------2-0----|
D|---------------------------------------------------------------|
A|---------------------------------------------------------------|
E|---------------------------------------------------------------|

For that part, play:

e|--1--------3--0--------1-------3--0-3h5p3---1--------3----------|
B|----1----1-3----1--------1---1-3--------------1----1-3--3---5p3-|
G|------1----3------2-0------1---3----------------1----3----5-----|
D|----------------------------------------------------------------|
A|----------------------------------------------------------------|
E|----------------------------------------------------------------|

[intro]

pre-ending

Cmaj7  Dm7  Em7  Fmaj7  [x4]

for the ending

e|----1-1-1-0-------------|
B|--0---------3-1---------|
G|-----------------0------|
D|--------------------2---|
A|----------------------3-|
E|------------------------|
     G7         C       Gm7

final ending:

Original Melody        New Guitar
e|-------------        e|--10-9-8-|
B|--1----------        B|--8--7-6-|
G|----0--------        G|--9--8-7-|
D|------2------        D|---------|
A|-------------        A|---------|
E|-------------        E|---------|

B|--5-7-5--4-6-4-      e|--5/7\5--4/6\4-|
                       B|---------------|
                       G|--5/7\5--4/6\4-|

e|--3-----             e|--0------|
B|--5p3h5-             B|---1-----|
G|--5-----             G|----0----|
                       D|-----3---|
                       A|------0--|
                       E|-------1-|



thanks for learning the song in this way, i hope you can read it fine :D
Tap to rate this tab
# A B C D E F G H I J K L M N O P Q R S T U V W X Y Z