Song name
# A B C D E F G H I J K L M N O P Q R S T U V W X Y Z

Misc Computer Games - Skyrim - Song Of The Dragonborn tab

Title: Song of the Dragonborn
SubTitle: The Elder Scrolls V: Skyrim
Arranged by MichaelPot

A text version for anyone with out GuitarPro. You will have to listen to the song, or 
there is a midi version on my profile.
Don't forget to rate!
Send me a link to you performing this song!
Also if you have any questions/corrections/comments feel free to send them to me!

Contact: TheMichaelPot@gmail.com

Tempo = 198
Guitar

Legend
L - tied note
x - dead note
h - hammer on/pull off
b - bend
s - slide
~ - vibrato
g - ghost note
> - accentuated note
t - trill
M - palm mute
. - staccato
P - popping (bass)
S - slapping (bass)
+ - tapping
W - wide vibrato
< - fade in
w - whammy bar
= - tremolo picking
v - brush up
^ - brush down
V - pick stroke up
n - pick stroke down


E |-------|-------------|-------|-------|-------|-------------|-------|-------|
B |-------|-------------|-------|-------|-------|-------------|-------|-------|
G |-------|-------------|-------|-------|-------|-------------|-------|-------|
D |-------|-------------|-------|-------|-------|-------------|-------|-------|
A |--2L---|--2-----2----|--2L---|--2----|--2L---|--2-----2----|--2L---|--2----|
E |-------|-------------|-------|-------|-------|-------------|-------|-------|


-------|-------------|-------|-------|-------|-------------|-------|-------|
-------|-------------|-------|-------|-------|-------------|-------|-------|
-------|-------------|-------|-------|-------|-------------|-------|-------|
-------|-------------|-------|-------|-------|-------------|-------|-------|
--2L---|--2-----2----|--2L---|--2----|--2L---|--2-----2----|--2L---|--2----|
-------|-------------|-------|-------|-------|-------------|-------|-------|


-------------|-------------|-------------|----------------------|-------------|
--3----------|--0--0--0----|--2--0--0----|--0-----0-----2--3----|--3----------|
--4--4--4----|--0----------|--2----------|--0-------------------|--4--4--4----|
--4----------|--0----------|--2----------|--2-------------------|--4----------|
--5----------|--2----------|--0----------|--2-------------------|--5----------|
-------------|--3----------|-------------|--0-------------------|-------------|


-------------|-------------|----------------------|-------------|-------------|
--0--0--0----|--2--0--0----|--0-----0-----2--3----|--3----------|--0--0--0----|
--0----------|--2----------|--0-------------------|--4--4--4----|--0----------|
--0----------|--2----------|--2-------------------|--4----------|--0----------|
--2----------|--0----------|--2-------------------|--5----------|--2----------|
--3----------|-------------|--0-------------------|-------------|--3----------|


-------------|----------------------|-------------|-------------|-------------|
--2--0--0----|--0-----0-----2--3----|--3----------|--0--0--0----|--2--0--0----|
--2----------|--0-------------------|--4--4--4----|--0----------|--2----------|
--2----------|--2-------------------|--4----------|--0----------|--2----------|
--0----------|--2-------------------|--5----------|--2----------|--0----------|
-------------|--0-------------------|-------------|--3----------|-------------|


----------------------|----------------------|----------------------|
--0-----0-----2--3----|--0-----2--3--0-------|----------------------|
--0-------------------|----------------------|----------------------|
--2-------------------|----------------------|----------------------|
--2-------------------|----------------------|--2--------2--2-------|
--0-------------------|----------------------|----------------------|


-------------|----------------------|-------------|----------------------|
-------------|----------------------|-------------|--0L-------0L-0-------|
-------------|--0L-------0L-0-------|-------------|--0-------------------|
-------------|--2L-------2L-2-------|-------------|--0L-------0L-0-------|
--2--2--2----|--2--------2--2-------|--2--2--2----|--2L-------2L-2-------|
-------------|--0L-------0L-0-------|-------------|--3--------3--3-------|


-------------|----------------------|-------------|----------------------|
-------------|----------------------|-------------|--0L-------0L-0-------|
-------------|--2L-------2L-2-------|-------------|----------------------|
-------------|--2L-------2L-2-------|-------------|----------------------|
-------------|--4L-------4L-4-------|-------------|----------------------|
--3--3--3----|--5--------5--5-------|--5--5--5----|--7--------7--7-------|


-------------|----------------------|-------------|----------------------|
-------------|--8L-------8L-8-------|-------------|--0L-------0L-0-------|
-------------|----------------------|-------------|----------------------|
-------------|----------------------|-------------|----------------------|
-------------|--7L-------7L-7-------|-------------|----------------------|
--7--7--7----|--7--------7--7-------|--7--7--7----|--3--------3--3-------|


-------------|--0L-------0L-0-------|----------------------|
-------------|--2L-------2L-2-------|--------------3--2----|
-------------|----------------------|----------------------|
-------------|----------------------|----------------------|
-------------|--0--------0--0-------|--0-----0-----0L-0----|
--3--3--3----|----------------------|----------------------|


----------------------|----------------------|-------------|
--0-------------------|--0-------------------|--0----------|
--7L----7-----7--6----|--7L----7-----7--6----|--9--7--6----|
--9-------------------|--9-------------------|--7----------|
--9-------------------|--9-------------------|--7--0L-0----|
--7-----7L----7L-7----|--7-----7L----7L-7----|--9----------|


----------------------|----------------------|----------------------|
--0L----0-----0-------|--0L----0-----0-------|--0L----0--------0----|
--4L----4-------------|--0--------------2----|--0-----------2-------|
--4--------------7----|--0-------------------|--2-------------------|
--5-------------------|----------------------|--2-------------------|
--7-----7L----7L-7----|--7-----3L----3L-3----|--------0L----0L-0----|


-------------|----------------------|-----------------0----|
--2--3-------|--0L----0-----0-------|----------------------|
--2-----2----|--4L----4--------6----|--7-----7-----7-------|
--4----------|--4-------------------|--7-------------------|
--0--0-------|--5-------------------|--9-------------------|
-------------|--7-----7L----7L-7----|--7-----7L----7L-7----|


--2-------------------|--0----------|----------------------|
--------------2--3----|-----3--2----|--0L----0-----0-------|
--0-------------------|--2----------|--4L----4--------2----|
--0-------------------|--2----------|--4-------------------|
--2-------------------|--4--0L-0----|--5-----2L----2L-2----|
--------3L----3L-3----|--5----------|----------------------|


----------------------|----------------------|-------------|-------------|
--0L----0-----0-------|--0L----0--------0----|--2--3-------|--0----------|
--0--------------2----|--0-----------2-------|--2-----2----|--4----------|
--0-------------------|--2-------------------|--2----------|--4----------|
----------------------|--2-------------------|--0--0L-0----|--5----------|
--7-----3L----3L-3----|--------0L----0L-0----|-------------|-------------|


--2-----2--2--2--2----|--0--0--0----|----------------------|-------------|
----------------------|-------------|--3-----3--3--3--3----|--2--2--2----|
----------------------|-------------|--2-------------------|-------------|
----------------------|-------------|--0L----0L-0L-0L-0----|--2--0--2----|
----------------------|-----2--4----|----------------------|-------------|
----------------------|-------------|----------------------|-------------|


--2-----2--2--2--2----|-------------|----------------------|-------------|
--0-------------------|--5--5--5----|----------------------|-------------|
--x-------------------|-------------|--7-----7--7--7--7----|--6--6--6----|
--4-----4L-4L-4L-4----|--4----------|--7-------------------|-----0-------|
----------------------|-----2--4----|--5L----5L-5L-5L-5----|--7-----4----|
----------------------|-------------|----------------------|-------------|


--------2--2--2--2----|--0--0--0----|----------------------|-------------|
----------------------|-------------|--3-----3--3--3--3----|--2--2--2----|
--4-------------------|-------------|--2-------------------|-----0--2----|
--4-------------------|--4----------|----------------------|--4----------|
--2L----2L-2L-2L-2----|-----2--4----|--5L----5L-5L-5L-5----|-------------|
----------------------|-------------|----------------------|-------------|


--2-----2--2--2--2----|-------------|----------------------|-------------|
----------------------|--5--5--5----|----------------------|-------------|
--4L----4L-4L-4L-4----|-----2--6----|--7-----7--7--7--7----|--9--9--9----|
--4-------------------|--4----------|--9L----9L-9L-9L-9----|-------------|
----------------------|-------------|----------------------|-------------|
----------------------|-------------|----------------------|-------------|


-------------|-------------|-------------|-------------|-------------|
-------------|-------------|-------------|-------------|-------------|
-------------|-------------|-------------|-------------|-------------|
--9--9--9----|--9--9--9----|--9--9--9----|--9--9--9----|--9--9--9----|
--------7----|-------------|-----7-------|-------------|-------------|
--9--10------|--9--7L-7----|--------9----|--9--10------|--9--10------|


-------------|-------------|-------------|-------------|-------------|
-------------|-------------|-------------|-------------|-------------|
-------------|-------------|-------------|-------------|-------------|
--9--9--9----|--9--9--9----|--9--9--9----|--9--9--9----|--9--9--9----|
-------------|-----7-------|--------7----|--------7----|-------------|
--9--10L10---|--------9----|--9--10------|--9--10------|--9--10L10---|


-------------|-------------|----------------------|-------------|
-------------|-------------|----------------------|-------------|
-------------|-------------|--4L-------4L-4-------|-------------|
--9--9--9----|--9--9--9----|--4--------4--4-------|--4--4--4----|
-----7-------|--------7----|----------------------|-------------|
--------9----|--9--10------|--2--------2--2-------|--2--2--2----|


----------------------|-------------|--2L----2----|--2L----2----|--2L----2----|
----------------------|-------------|--0L----0----|--0L----0----|--0L----0----|
----------------------|-------------|-------------|-------------|-------------|
--5--------5--5-------|--5--5--5----|--4L----4----|--4L----4----|--4L----4----|
--3-------------------|-------------|--2-----2----|--2-----2----|--2----------|
--3--------3--3-------|--3--3--3----|-------------|-------------|--3-----3----|


--2----|--2L----2----|--2L----2----|--2L----2----|--2----|
--0----|--0L----0----|--0L----0----|--0L----0----|--0----|
-------|-------------|-------------|-------------|-------|
--4----|--4L----4----|--4L----4----|--4L----4----|--4----|
--2----|--2-----2----|--2-----2----|--2----------|--2----|
-------|-------------|-------------|--3-----3----|-------|


----------------------|----------------------|----------------------|
--3-------------------|--2-------------------|--0-------------------|
----------------------|----------------------|----------------------|
----------------------|----------------------|----------------------|
--2--------2--2-------|--2--------2--2-------|--2--------2--2-------|
----------------------|----------------------|----------------------|


-------------|----------------------|----------------------|
-------------|--2L-------2L-2L------|--2-------------------|
-------------|----------------------|----------------------|
-------------|----------------------|----------------------|
--2--2--2----|--0--------0--0-------|--0--------0--0-------|
-------------|----------------------|----------------------|


----------------------|-------------|----------------------|
----------------------|--2----------|--3-------------------|
--2-------------------|-------------|--4-------------------|
----------------------|-------------|----------------------|
--0--------0--0-------|--0--0--0----|--2--------2--2-------|
----------------------|-------------|----------------------|


----------------------|----------------------|-------------|
--2-------------------|--0-------------------|-------------|
----------------------|----------------------|-------------|
----------------------|----------------------|-------------|
--2--------2--2-------|--2--------2--2-------|--2--2--2----|
----------------------|----------------------|-------------|


--0L-------0L-0L------|--0-------------------|--2-------------------|
--2L-------2L-2L------|--2-------------------|----------------------|
--2L-------2L-2L------|--2-------------------|----------------------|
--2L-------2L-2L------|--2-------------------|----------------------|
--0--------0--0-------|--0--------0--0-------|--0--------0--0-------|
----------------------|----------------------|----------------------|


--0----------|----------------------|----------------------|
-------------|--0L-------0L-0-------|----------------------|
-------------|----------------------|--6L-------6L-6-------|
-------------|--0L-------0L-0-------|----------------------|
--0--0--0----|--9L-------9L-9-------|--7-------------------|
-------------|--7--------7--7-------|--7--------7--7-------|


----------------------|-------------|----------------------|-------------|
----------------------|-------------|----------------------|-------------|
--7L-------7L-7-------|-------------|--6L-------6L-6-------|-------------|
--0L-------0L-0-------|-------------|----------------------|-------------|
--9L-------9L-9-------|-------------|--7L-------7L-7-------|-------------|
--7--------7--7-------|--7--7--7----|--9L-------9L-9-------|--2--2--2----|


----------------------|-------------|----------------------|
----------------------|--2L-2L-2----|--0L-------0L-0-------|
--2L-------2L-2-------|-------------|----------------------|
----------------------|-------------|--0L-------0L-0-------|
--0L-------0L-0-------|--4L-4L-4----|--9L-------9L-9-------|
--2--------2--2-------|--2--2--2----|--7--------7--7-------|


----------------------|----------------------|-------------|
----------------------|----------------------|-------------|
--6L-------6L-6-------|--7L-------7L-7-------|-------------|
----------------------|--0L-------0L-0-------|-------------|
--7L-------7L-7-------|--9L-------9L-9-------|-------------|
--7--------7--7-------|--7--------7--7-------|--7--7--7----|


--2L-------2L-2-------|----------------------|----------------------|
--2-------------------|----------------------|----------------------|
--2L-------2L-2-------|----------------------|--2L-------2L-2-------|
--4L-------4L-4-------|----------------------|----------------------|
--4-------------------|----------------------|----------------------|
--2--------2--2-------|--2--------2--2-------|--2--------2--2-------|


-------------|----------------------|----------------------|-------------|
--2L-2L-2----|----------------------|--------0--0--0--0----|--0--0--0----|
-------------|--4-----4--4--4--4----|--4-----0--0--0--0----|--2--2--2----|
-------------|----------------------|--5-------------------|-------------|
-------------|--2L----2L-2L-2L-2----|----------------------|--0L-0L-0----|
--2--2--2----|----------------------|--3L----3L-3L-3L-3----|-------------|


-------------|----------------------|----------------------|-------------|
--0--0--0----|--0-----0--0--0--0----|--0-----0--0--0--0----|--0--0--0----|
-------------|----------------------|--0-----0--0--0--0----|--2--2--2----|
--2--2--2----|----------------------|----------------------|-------------|
-------------|--2L----2L-2L-2L-2----|----------------------|--0L-0L-0----|
--0L-0L-0----|----------------------|--3L----3L-3L-3L-3----|-------------|


-------------|----------------------|----------------------|-------------|
--0--0--0----|--3-----3--3--3--3----|--3-----3--3--3--3----|--2--2--2----|
-------------|--4-----4--4--4--4----|--4-----4--4--4--4----|--2--2--2----|
--2--2--2----|----------------------|----------------------|-------------|
-------------|--2L----2L-2L-2L-2----|----------------------|--0L-0--0----|
--0L-0L-0----|----------------------|--3L----3L-3L-3L-3----|-------------|


-------------|----------------------|----------------------|-------------|
--0--0--0----|--3-----3--3--3--3----|--3-----3--3--3--3----|--2--2--2----|
-------------|--4-----4--4--4--4----|--4-----4--4--4--4----|--2--2--2----|
--2--2--2----|----------------------|----------------------|-------------|
-------------|--2L----2L-2L-2L-2----|----------------------|--0--0--0----|
--0L-0L-0----|----------------------|--3L----3L-3L-3L-3----|-------------|


-------------|-------|--------0----|--2----|--2--2--5----|-------|-------------|
--0--0--2----|--3----|--3--3-------|--0----|--0----------|--5----|--5--3--2----|
-------------|-------|-------------|-------|--------2----|--6----|--6----------|
--2----------|--4----|--4--0--2----|--4----|--4--4-------|--7----|--7--0-------|
-----2--4----|--5----|--5----------|-------|-------------|--7----|--7-----4----|
--0--0--0----|-------|-------------|-------|-------------|-------|-------------|


-------|-------------|-------|--------0----|--2----|--2--2--5----|--7----|
--0----|--0--0-------|--3----|--3--3-------|--0----|--0----------|--0----|
-------|--------6----|-------|-------------|-------|--------2----|--0----|
--6----|--6----------|--4----|--4--0--2----|--4----|--4--4-------|-------|
--7----|--7----------|--5----|--5----------|-------|-------------|-------|
--7----|--7--7--9----|-------|-------------|-------|-------------|-------|


--7--5--9----|--7----|--7----------|--10L------10-9-------|-----7L-7----|
--0----------|-------|-------------|----------------------|-----0L-0----|
--0-----6----|-------|--4--4--6----|--7L-------7--6-------|-------------|
-----7-------|--9----|-------------|----------------------|-------------|
-------------|-------|-----2--4----|----------------------|-------------|
-------------|-------|-------------|--7--------7L-7-------|--7L-7--7----|


--5L-------5----------|-------------|----------------------|-------------|
--------------8-------|-----7L-7----|--5L-------5L-5-------|--------7----|
----------------------|-------------|----------------------|-----7-------|
--7L-------7--5-------|-------------|----------------------|-----0-------|
--5--------5L-5-------|--5L-5--5----|--7L-------7L-7-------|--------9----|
--7--------7L-7-------|--7L-7--7----|--7--------7--7-------|--7--7--7----|


----------------------|----------------------|----------------------|
----------------------|--------------3-------|--0-------------------|
--9L-------9L-9-------|-----------------6----|--7L----7-----7--6----|
----------------------|----------------------|--9-------------------|
--7L-------7L-7-------|----------------------|--9-------------------|
--5--------5--5-------|--5-----5-----5L-5----|--7-----7L----7L-7----|


----------------------|-------------|----------------------|
--0-------------------|--0----------|--0L----0-----0-------|
--7L----7-----7--6----|--9--7--6----|--4L----4-------------|
--9-------------------|--7----------|--4--------------7----|
--9-------------------|--7--0L-0----|--5-------------------|
--7-----7L----7L-7----|--9----------|--7-----7L----7L-7----|


----------------------|----------------------|-------------|
--0L----0-----0-------|--0L----0--------0----|--2--3-------|
--0--------------2----|--0-----------2-------|--2-----2----|
--0-------------------|--2-------------------|--4----------|
----------------------|--2-------------------|--0--0-------|
--7-----3L----3L-3----|--------0L----0L-0----|-------------|


----------------------|-----------------0----|--2-------------------|
--0L----0-----0-------|----------------------|--------------2--3----|
--4L----4--------6----|--7-----7-----7-------|--0-------------------|
--4-------------------|--7-------------------|--0-------------------|
--5-------------------|--9-------------------|--2-------------------|
--7-----7L----7L-7----|--7-----7L----7L-7----|--------3L----3L-3----|


--0----------|----------------------|----------------------|
-----3--2----|--0L----0-----0-------|--0L----0-----0-------|
--2----------|--4L----4--------2----|--0--------------2----|
--2----------|--4-------------------|--0-------------------|
--4--0L-0----|--5-----2L----2L-2----|----------------------|
--5----------|----------------------|--7-----3L----3L-3----|


----------------------|-------------|-------------|-------------|-------------|
--0L----0--------0----|--2--3-------|--0-----0----|--7----------|--7----------|
--0-----------2-------|--2-----2----|--4-----4----|--4-----4----|--4-----4----|
--2-------------------|--2----------|--4-----4----|--4-----4----|--4-----4----|
--2-------------------|--0--0L-0----|--5-----5----|--5-----5----|--5-----5----|
--------0L----0L-0----|-------------|-------------|-------------|-------------|


-------------|-------------|-------------|-------------|-------------|-------|
--7----------|-------------|--7----------|--7----------|--7----------|--7L---|
--4-----4----|--4-----4----|--4-----4----|--4-----4----|--4-----4----|--4L---|
--4-----4----|--4-----4----|--4-----4----|--4-----4----|--4-----4----|--4L---|
--5-----5----|--5-----5----|--5-----5----|--5-----5----|--5-----5----|--5L---|
-------------|-------------|-------------|-------------|-------------|-------|


-------|-------|----------|-------|-------|-------|-------|--2L---|--2----|
--7L---|--7----|--0--2----|--3L---|--3----|--2L---|--2----|--0L---|--0----|
--4L---|--4----|----------|-------|-------|-------|-------|-------|-------|
--4L---|--4----|----------|--4L---|--4----|-------|-------|--2L---|--2----|
--5L---|--5----|----------|-------|-------|-------|-------|-------|-------|
-------|-------|----------|-------|-------|-------|-------|-------|-------|


-------|-------|-------|-------|--7L---|--7----|--7----|--5----|--3----|--2----|
-------|-------|-------|--7----|--8L---|--8----|-------|-------|-------|-------|
-------|--6----|--7----|-------|--7L---|--7----|-------|-------|-------|-------|
-------|-------|-------|-------|--9L---|--9----|-------|-------|-------|-------|
--2----|-------|-------|--0----|-------|-------|-------|-------|-------|-------|
-------|-------|-------|-------|-------|-------|-------|-------|-------|-------|


--0----|--0L---|--0----|-------|-------|-------|-------|--4L---|--4----|-------|
-------|--0L---|--0----|-------|-------|--0L---|--0----|-------|-------|-------|
-------|--1L---|--1----|-------|-------|-------|-------|-------|-------|-------|
-------|--2L---|--2----|--2L---|--2----|-------|-------|-------|-------|-------|
-------|--2L---|--2----|-------|-------|-------|-------|-------|-------|-------|
-------|--0L---|--0----|-------|-------|-------|-------|-------|-------|--0L---|


-------------|-------|-------|-------|-------------|-------|-------||
-------------|-------|-------|-------|-------------|-------|-------||
-------------|-------|-------|-------|-------------|-------|-------||
-------------|-------|-------|-------|-------------|-------|-------||
-------------|-------|-------|-------|-------------|-------|-------||
--0-----0----|--0L---|--0----|--0L---|--0-----0----|--0L---|--0----||
Tap to rate this tab
# A B C D E F G H I J K L M N O P Q R S T U V W X Y Z