Song name
# A B C D E F G H I J K L M N O P Q R S T U V W X Y Z

Misc Computer Games - Gta - Liberty City Stories Theme tab

-------------------------------------------------------------------------------
                                        GTA Liberty City Stories (Dark March)
-------------------------------------------------------------------------------
Tabbed by:aceandrew

Tuning:Standard

Part 1
e|---------------------------------------------------------------------------|
B|---------------------------------------------------------------------------|
G|---------------------------------------------------------------------------|
D|---------------------------------------------------------------------------|
A|--0-5-5-5-7-8--7-5-8------0-5-5-5-7-8--8-10-8-8-7--------------------------|
E|---------------------6-----------------------------------------------------|

e|---------------------------------------------------------------------------|
B|---------------------------------------------------------------------------|
G|---------------------------------------------------------------------------|
D|---------------------------------------------------------------------------|
A|--0-5-5-5-7-8--7-5-8------0-5-5-5-7-8--8-10-10-8-8-7-----------------------|
E|---------------------6-----------------------------------------------------|

Part 2
e|---------------------------------------------------------------------------|
B|--11-11-11--15-13-11--10-10-10--13-11-10-8--8-10-11--11-10-----------------|
G|---------------------------------------------------------------------------|
D|---------------------------------------------------------------------------|
A|--10-10-10--13-12-10--8--8--8---12-10-8--7--7-8--10--10--8-----------------|
E|---------------------------------------------------------------------------|
Tap to rate this tab
# A B C D E F G H I J K L M N O P Q R S T U V W X Y Z