Song name
# A B C D E F G H I J K L M N O P Q R S T U V W X Y Z

Misc Computer Games - Legend Of Zelda - Ocarina Of Time - Song Of Storms Windmill Hut Theme tab

Song: "Song of Storms (Windmill Hut)" Solo Guitar Arrangement
Game: "Legend Of Zelda: Ocarina of Time"
Tabbed and Arranged by: David McNealy (email: davemcnealy@yahoo.com)
Tabbed on: September 9, 2012

All copyrights go to the owners and creators such as Nintendo Co. and Koji Kondo (the composer).
I claim no ownership.


Song Layout:
Intro
Part A
Part B
Intro
Part A
Part B
etc.


Intro (2x):
e------5-5-----------7------8-8----------7-------------------------|
B------3-3-------5----------6-6--------5---------------------------|
G------------------------------------------------------------------|
D------------------------------------------------------------------|
A---5---------7-----------8---------7------------------------------|
E------------------------------------------------------------------|


Part A:
e-------10-----------10---------12---13-12-13------12---8----------|
B----10-----------10---------------------------------------10------|
G--7------------7--------------------------------------------------|
D--0---------------------------------------------------------------|
A---------------7---------------8------------------7---------------|
E------------------------------------------------------------------|

e------------------------------------------------------------------|
B--10-----6-8--10----10----6-8--9----------------------------------|
G-----7-----------------7------------------------------------------|
D--7-----------------7----------7----------------------------------|
A--------------8---------------------------------------------------|
E------------------------------------------------------------------|


Part B:

e-------10-----------10---------12---13-12-13------12---8----------|
B----10-----------10---------------------------------------10------|
G--7------------7--------------------------------------------------|
D--0---------------------------------------------------------------|
A---------------7---------------8------------------7---------------|
E------------------------------------------------------------------|

e------------------------------------------------------------------|
B--10-----6-8--10----10--------------------------------------------|
G-----7------------------8-----------------------------------------|
D--7---------------------0-----------------------------------------|
A--------------8---------------------------------------------------|
E------------------------------------------------------------------|


If you have any questions you can contact me at my email or refer to my video at:
http://www.youtube.com/watch?v=2-gk0wH8vcE&feature=plcp
Tap to rate this tab
# A B C D E F G H I J K L M N O P Q R S T U V W X Y Z