Song name
# A B C D E F G H I J K L M N O P Q R S T U V W X Y Z

Misc Computer Games - Final Fantasy - Chocobo Theme tab

Here is Chocobo Tales from Final Fantasy 2 :)


 Part 1

 1 |-----------------------------------|
 2 |-----------------------------------|
 3 |-----------------------------------|
 4 |-----------------------------------|
 5 |-----2-----0--------2-------0---0--|
 6 |-3-------1------3-------1-----1----|

 I did not get the next part yet. I will edit this soon. Once i get it :)

 Part 2

 1  |---------------------3-----------|----------------------------------|
 2  |-5-------------5-3-------3-----0-|-----------------0-0h1-0---0------|
 3  |-5---5-2-----5-------------------|-5---2---------5---------2---0----|
 4  |---------4-7---------------4-2---|-------4---4-7--------------------|
 5  |-3-----3-5-------2-------2-------|-3-----4-5-------2-----0----------|
 6  |---------------------------------|---------------------------3---1--|

 1  |---------------------3-----------|-------------------------------0-2--|
 2  |-5-------------5-3-------3-----0-|-------------------------0-1-3------|
 3  |-5---5-2-----5-------------------|-2-2h4-2-0-2---0-2-0h1h2------------|
 4  |---------4-7---------------4-2---|-----------------0-------0----------|
 5  |-3-----3-5-------2-------2-------|------------------------------------|
 6  |---------------------------------|-1-------1--------------------------|

Repeat whole song.
Tap to rate this tab
 
# A B C D E F G H I J K L M N O P Q R S T U V W X Y Z