Song name
# A B C D E F G H I J K L M N O P Q R S T U V W X Y Z

Misc Computer Games - Kors K - Smooooch tab

 Parliamo Di Videogiochi FTW!

e|---------------------------|
B|--17-----------------------|
G|-----16-14----14-13--------|
D|-----------14-------14-----|
A|-----------------------14--|
E|---------------------------|

e|---------------------------|
B|--17----------------17-----|
G|-----16-14----14-16----16--|
D|-----------14--------------|
A|---------------------------|
E|---------------------------|
Tap to rate this tab
# A B C D E F G H I J K L M N O P Q R S T U V W X Y Z