Song name
# A B C D E F G H I J K L M N O P Q R S T U V W X Y Z

Misc Computer Games - League Of Legends Theme tab

|-------|-0---------|-------------|-------7----|
|-0-3---|------0----|------7------|--8---------|
|-------|---0---0---|---0----0----|-----9--9---|
|-------|-----------|-------------|-10---------|
|-------|-----------|-7-----------|------------|
|-------|-0---------|-------------|------------| 

|------------|--2---------|------------|-----------|----0-3---|
|--------8---|-------3----|------------|---1-------|----------|
|-----9---9--|-----2---2--|----2-5-4---|-------2---|----------|
|--10--------|--0---------|--0---------|----2---2--|---2------|
|------------|------------|------------|--0--------|-0--------|
|------------|------------|------------|-----------|----------|

|--5---------|-------7----|--8---------|------8-----|-10---------|
|-------6----|------------|-------5----|---------5--|-------7----|
|-----5---5--|-----5---5--|-----5---5--|-----5------|-----7---7--|
|--3---------|--3---------|--7---------|--7---------|--9---------|
|------------|------------|------------|------------|------------|
|------------|------------|------------|------------|------------| 

|------------|-----------|----------| 
|--0---------|-----------|------0-3-| 
|----2-------|-----------|----------| 
|------4--0--|-----------|----------|
|------------|-4-4-4-4---|-4-4------|
|------------|-2-2-2-2---|-2-2------|
Tap to rate this tab
# A B C D E F G H I J K L M N O P Q R S T U V W X Y Z