Song name
# A B C D E F G H I J K L M N O P Q R S T U V W X Y Z

Misc Computer Games - Final Fantasy 8 - Eyes On Me tab

This is my first tab ever, so hopefully it's okay.  Enjoy.



E --------------0--3--0---|---------0----------------3------|
B ------1--3----------1---|---3--------1-------1-----3------|
G ---0--0-------------2---|---2-------------2---------------|
D ------------------------|---3-----------------------------|
A ------3-----------------|---------------------------2-----|
E ------------------------|---------------------------------|


E --------------0--3---7------|---7---7---8---5------3--5---3----|
B -------1--3----------8------|-------8-------6-------------3----|
G ---0---0-------------0------|-------0-------0------------------|
D ----------------------------|----------------------------------|
A -------3--------------------|-----------------------------2----|
E ----------------------------|----------------------------------|


E --3-8--8--7--5----5-----3---|--0---3---5----5---3--1---0--------|
B -------------6----6-----0---|----------6-------------1-----3----|
G ----------0-----------------|------------------------------0----|
D ----7--7----------------2---|-----------------------------------|
A ----------------------------}------------------------------2----|
E ----------------------------|-----------------------------------|



E ------------0--1--3--3--1---|-----0---------------------||
B ----1---3---------0---------|-1---0-----3--------1------||
G --0-0-----------------------|-----0-----0--------0------||
D ------------------0---------|--------------------2------||
A ----3-----------------------|---------------------------||
E ----------------------------|-----------3---------------||

Tap to rate this tab
# A B C D E F G H I J K L M N O P Q R S T U V W X Y Z