Song name
# A B C D E F G H I J K L M N O P Q R S T U V W X Y Z

Misc Computer Games - Metro 2033 - Guitar Song 1 tab

E|-----------------------------------|--------------------------|-----------------------------|
B|--------0--1--1--0-----3--1--0--0--|--------0--1--1--0-----0--|--------0--1--1--0-----3--1--|
G|-----2--------0-----2--2--------0--|-----2--------------2--1--|-----2--------2-----2--2-----|
D|--2--2--------0--------0--------0--|--2--2-----------------2--|--2--2--------0--------0-----|
A|-----0--------2--------------------|-----0-----------------2--|-----------------------------|
E|--------------3--------------------|--------------1--------0--|-----------------------------|



E|--------|----------------------------|-----|
B|--0--0--|--1--0--------------0h1-----|-----|
G|-----0--|--2-----2--1--2--1--2----2--|-----|
D|-----0--|--2--------2--------2-------|-----|
A|--------|--0--------2--------0-------|-----|
E|--------|----------------------------|-----|
Tap to rate this tab
# A B C D E F G H I J K L M N O P Q R S T U V W X Y Z