Song name
# A B C D E F G H I J K L M N O P Q R S T U V W X Y Z

Misc Computer Games - Team Fortress 2 Theme tab

I noticed some of the other tabs didn't sound right so I made this. Sounds about right to me.


e|  ---------------------------------------------------------|
B|  ---------------------------------------------------------|
G|  ---------------------------------------------------------|
D|  ---------------------------------------------------------|
A|  ---------------------------------------------------------|
E|  ---------------------5/777---5/777--5/777--5/7777-6-5-3--|

e|  ---------------------------------------------------------|
B|  ---------------------------------------------------------|
G|  ---------------------------------------------------------|
D|  ---------------------------------------------------------|
A|  ---------------------------------------------------------|
E|  -0-0-0-3-3-3-0-0-0-7-7-7-5-5-6-6-0-0-0-3-3-3-0-0-0-7-7-7-|

e|  -----------------------------------------------------------|
B|  -----------------------------------------------------------|
G|  -----------------------------------------------------------|
D|  -----------------------------------------------------------|
A|  -----------------------------------------------------------|
E|  -6-6-5-5-0-0-0-3-3-3-0-0-0-7-7-7-5-5-6-6-0-0-0-3-3-3-0-0-0-|

e|  ---------------------------------------------------------|
B|  ---------------------------------------------------------|
G|  ---------------------------------------------------------|
D|  ---------------------------------------------------------|
A|  ---------------------------------------------------------|
E|  -1-1-2-2-3-3-4-4-0-0-0-3-3-3-0-0-0-7-7-7-5-5-6-6-0-0-0-3-|

e|  ---------------------------------------------------------|
B|  ---------------------------------------------------------|
G|  ---------------------------------------------------------|
D|  ---------------------------------------------------------|
A|  ---------------------------------------------------------|
E|  -3-3-0-0-0-7-7-7-6-6-5-5-0-0-0-3-3-3-0-0-0-7-7-7-5-5-6-6-|

e|  ----------------------------------------------------------|
B|  ----------------------------------------------------------|
G|  ----------------------------------------------------------|
D|  ----------------------------------------------------------|
A|  ----------------------------------------------------------|
E|  -0-0-0-3-3-3-0-0-0-1-1-2-2-3-3-4----2/7~----5/777-5/777---|

e|  ------------------------------------------------------------|
B|  ------------------------------------------------------------|
G|  ------------------------------------------------------------|
D|  ------------------------------------------------------------|
A|  ------------------------------------------------------------|
E|  -5/777-5/777-5/777-5/7777-6-5-3-0-0-0-3-3-3-0-0-0-7-7-7-5-5-|

e|  -------------------------------------------------------------|
B|  -------------------------------------------------------------|
G|  -------------------------------------------------------------|
D|  -------------------------------------------------------------|
A|  -------------------------------------------------------------|
E|  -6-6-0-0-0-3-3-3-0-0-0-7-7-7-6-6-5-5-0-0-0-3-3-3-0-0-0-7-7-7-|

e|  ---------------------------------------------------------------|
B|  ---------------------------------------------------------------|
G|  ---------------------------------------------------------------|
D|  ---------------------------------------------------------------|
A|  ---------------------------------------------------------------|
E|  -5-5-6-6-0-0-0-3-3-3-0-0-----5/777-5/777-5/777-5/777-7-6-5-3-0-|


/ slide
~ let ring
Tap to rate this tab
 
# A B C D E F G H I J K L M N O P Q R S T U V W X Y Z