Song name
# A B C D E F G H I J K L M N O P Q R S T U V W X Y Z

Misc Computer Games - Final Fantasy 8 - Seed tab

e|---------------|----------------|----------------|------3~~~~~~~-|
B|-0-1-----------|--0-1-5~~~~~~~--|--0-1-----------|---------------|
G|-----2~~~~~~~--|----------------|------2~~~~~~~--|--2-3----------|
D|---------------|----------------|----------------|---------------|
A|---------------|----------------|----------------|---------------|
E|---------------|----------------|----------------|---------------|

e|-----------------------|--------------------------|--------------|
B|-----------------------|--------------------------|--------------|
G|-2~-1-2-4~-1-2~~~~~~~--|--6-4-7-6-4-6-1-2~~~~~~~--|--2~-1-2-4~-1-|
D|-----------------------|--------------------------|--------------|
A|-----------------------|--------------------------|--------------|
E|-----------------------|--------------------------|--------------|

e|-----------|--------------------------|--------------------------|
B|-----------|--------------------------|--4~~~~-------------------|
G|-2~~~~~~~--|--6-4-7-6-4-6-1-2~~~~~~~--|---------2~~~~-4-3~~~~~~~-|
D|-----------|--------------------------|--------------------------|
A|-----------|--------------------------|--------------------------|
E|-----------|--------------------------|--------------------------|

e|------------------------|
B|-7~~~~-3~~~~-6-4~~~~~~--|
G|------------------------|
D|------------------------|
A|------------------------|
E|------------------------|

This is another easy song hear it once and you'll get it
Tap to rate this tab
# A B C D E F G H I J K L M N O P Q R S T U V W X Y Z