Song name
# A B C D E F G H I J K L M N O P Q R S T U V W X Y Z

Misc Computer Games - Final Fantasy 8 - Timber Owls tab

E|-------3--6|----5--1---|------0-3-5-8-6-5-3-5-1-|
B|----1------|----------1|--0-1-------------------|
G|-----------|-----------|------------------------|
D|-----------|-----------|------------------------|
A|-----------|-----------|------------------------|
E|-----------|-----------|------------------------|

E|---1----1--0---1--3--0---|
B|------------------------1|
G|-------------------------|
D|-------------------------|
A|-------------------------|
E|-------------------------|
Tap to rate this tab
 
# A B C D E F G H I J K L M N O P Q R S T U V W X Y Z