Song name
# A B C D E F G H I J K L M N O P Q R S T U V W X Y Z

Misc Computer Games - Virtua Tennis - On The Run tab

Virtua Tennis - On The Run (Dreamcast)
Tabbed by LTRobson 16/06/07

Standard tuning

|-------------------------------------------------------------|
|-------------------------------------------------------------|
|-------------------------------------------------------------|
|-5-7-7-5-7-7-5-7-7-5------------5-7-7-5-7-7-5-7-7-5-----5--7-|
|---------------------7-5-3-0------------------------7-0-3--5-|
|-------------------------------------------------------------|

|------------------------------------------------------------|
|------------------------------------------------------------|
|------------------------------------------------------------|
|-5-7-7-5-7-7-5-7-7-5------------------------------5---------|
|---------------------7-5-3-0----4p0---5p0---6p0-7---7-6-5---|
|------------------------------------3-----3---------------3-|

|-------------------------------------------------------------|
|-------------------------------------------------------------|
|-------------------------------------------------------------|
|-5-7-7-5-7-7-5-7-7-5------------5-7-7-5-7-7-5-7-7-5-----5--7-|
|---------------------7-5-3-0------------------------7-0-3--5-|
|-------------------------------------------------------------|

|-----------------------------------------------|
|-----------------------------------------------|
|-----------------------------------------------|
|-5-7-7-5-7-7-5-7-7-5---------------------3-x-5-|
|---------------------7-5-3------3-x-5----1-x-3-|
|---------------------------5----1-x-3----------|

|-------------------------------------------------------------|
|-------------------------------------------------------------|
|-------------------------------------------------------------|
|-5-7-7-5-7-7-5-7-7-5------------5-7-7-5-7-7-5-7-7-5-----5--7-|
|---------------------7-5-3-0------------------------7-0-3--5-|
|-------------------------------------------------------------|

|------------------------------------------------------------|
|------------------------------------------------------------|
|------------------------------------------------------------|
|-5-7-7-5-7-7-5-7-7-5------------------------------5---------|
|---------------------7-5-3-0----4p0---5p0---6p0-7---7-6-5---|
|------------------------------------3-----3---------------3-|
Tap to rate this tab
 
# A B C D E F G H I J K L M N O P Q R S T U V W X Y Z