Song name
# A B C D E F G H I J K L M N O P Q R S T U V W X Y Z

Misc Computer Games - Virtua Tennis - Name Entry tab

Virtua Tennis - Name Entry (Dreamcast)
Tabbed by LTRobson 16/06/07

Standard tuning
Fret bass notes with thumb
Underscores are palm mutes

|---------------------------------------------------------------|
|---------------------------------------------------------------|
|-5--------5--4------5--4----3--------3--2--5-(7)-5-(7)-(5)p4---|
|-5--------5--5------5--5----3--------3--3--------------------5-|
|-x--------------------------x----------------------------------|
|-3--3-3-3-------3-3---------1--1-1-1---------------------------|
     - - -       - -            - - -

|------------------------------------------------------------|
|------------------------------------------------------------|
|-5--------5--4------5--4----3--------3--x-5--------7--------|
|-5--------5--5------5--5----3--------3--x-5--------5--------|
|-x--------------------------x-------------3--------5--------|
|-3--3-3-3-------3-3---------1--1-1-1------------------------|
     - - -       - -            - - -

|---------------------------------------------------------------|
|---------------------------------------------------------------|
|-5--------5--4------5--4----3--------3--2--5-(7)-5-(7)-(5)p4---|
|-5--------5--5------5--5----3--------3--3--------------------5-|
|-x--------------------------x----------------------------------|
|-3--3-3-3-------3-3---------1--1-1-1---------------------------|
     - - -       - -            - - -

|----------------------------------------------------------|
|----------------------------------------------------------|
|-5--------5--4------5--4---3--------------3-5-------------|
|-5--------5--5------5--5-----3-1-0------3-----5-3-2---3-5-|
|-x-----------------------------------/5-------------------|
|-3--3-3-3-------3-3---------------------------------------|
     - - -       - -        - - - -    - - - - - - -   - -

Repeat
Tap to rate this tab
# A B C D E F G H I J K L M N O P Q R S T U V W X Y Z