Song name
# A B C D E F G H I J K L M N O P Q R S T U V W X Y Z

Misc Computer Games - Bomberman - Bgm 1 tab

#----------------------------------PLEASE NOTE---------------------------------#
#This file is the author's own work and represents their interpretation of the #
#song. You may only use this file for private study, scholarship, or research. #
#------------------------------------------------------------------------------##

                                 BOMBERMAN BGM 1
                         As recorded by Atsushi Chikuma
                       (From the 1987 Album BOMBERMAN OST)

Music by Atsushi Chikuma
Arranged by Ben Goodrich
Transcribed by Ben Goodrich

Gtr I (E A D G B E)

Q=129 BPM
    S S S S E S S E E Q    S S S S E S S E S S S S E
||-----------------------|---------------------------|
||-----------------------|---------------------------|
||------4----------------|---------------------------|
||------------4-6-7-7-6--|-----7-------4-5-4-5-------|
||--2-2---2-5------------|---------4-7---------------|
||-----------------------|-5-5---5-------------5-4-5-|


  S S S S E S S E E Q    S S S S E S S E E E S S    
|----------------------|---------------------------||
|----------------------|---------------------------||
|----------------------|---------------------------||
|-----4---2-1-2---4----|-----4---2-1-2---4---------|| Repeat Infinitely
|----------------------|-----------------------1---||
|-2-2---2-------2---2--|-2-2---2-------2---2-4-----||


Duration Legend
---------------
W - whole; H - half; Q - quarter; E - 8th; S - 16th; T - 32nd; X - 64th; a - acciaccatura
+ - note tied to previous; . - note dotted; .. - note double dotted
Tap to rate this tab
# A B C D E F G H I J K L M N O P Q R S T U V W X Y Z