Song name
# A B C D E F G H I J K L M N O P Q R S T U V W X Y Z

Misc Computer Games - Tetris Theme tab

Nice and slow with feeling, like a spanish guitar
   E              Am             E           Am
e|-0--------------0------0-------0--------0--0-------|
B|-0--0-1-3-1-0---1----1---3-1---0--0-1-3----1-------|
G|-1--------------2--2-----------1-----------2--2--2-|
D|-2--------------2--------------2-----------2-------|
A|-2--------------0--------------2-----------0-------|
E|-0--------------0--------------0-----------0-------|

With more gusto                              Back to with feeling
   E              Am             E           Am
e|-00-------------00-----0-------00-------0--0-------|
B|-00-0-1-3-1-0---11---1---3-1---00-0-1-3----1-------|
G|-11-------------22-2-----------11----------2--2--2-|
D|-22-------------22-------------22----------2-------|
A|-22-------------00-------------22----------0-------|
E|-00-------------00-------------00----------0-------|


        Dm        Am              E          Am   
e|---1--1---3--1--0-------0-------0-------0--0-------|
B|--3---3---------1--1--3---3--1--0-0-1-3----1-------|
G|-2----2---------2---------------1----------2--2--2-|
D|------0---------2---------------2----------2-------|
A|----------------0---------------2----------0-------|
E|----------------0---------------0----------0-------|

                                               Play open
   C     G     F     E     C     G     F           E 
e|-0-----3-----1-----0-----0-----1-----1-------1---0--|
B|-1--1--0--0--1-----0--0--1--1--0--0--1---1-------0--|
G|-0-----0-----2--2--1-----0-----0-----2-----------1--|
D|-2-----0-----3-----2-----2-----0-----3-----------2--|
A|-3-----2-----3-----2-----3-----2-----3-----------2--|
E|-0-----3-----1-----0-----0-----3-----1-----------0--|

Finish with gusto
   E              Am             E           Am E  Am
e|-00-------------00-----0-------00-------0--0--0--0-|
B|-00-0-1-3-1-0---11---1---3-1---00-0-1-3----1--0--1-|
G|-11-------------22-2-----------11----------2--1--2-|
D|-22-------------22-------------22----------2--2--2-|
A|-22-------------00-------------22----------0--2--0-|
E|-00-------------00-------------00----------0--0--0-|
Tap to rate this tab
 
# A B C D E F G H I J K L M N O P Q R S T U V W X Y Z